  0
SECTION
  2
HEADER
  9
$ACADVER
  1
AC1014
  9
$ACADMAINTVER
 70
     9
  9
$DWGCODEPAGE
  3
ANSI_932
  9
$INSBASE
 10
0.0
 20
0.0
 30
0.0
  9
$EXTMIN
 10
1.877747562105923
 20
1.010605551081994
 30
-0.000000000000013
  9
$EXTMAX
 10
56.28753717556548
 20
49.13896219495097
 30
0.0000000000000023
  9
$LIMMIN
 10
0.0
 20
0.0
  9
$LIMMAX
 10
420.0
 20
297.0
  9
$ORTHOMODE
 70
     1
  9
$REGENMODE
 70
     1
  9
$FILLMODE
 70
     1
  9
$QTEXTMODE
 70
     0
  9
$MIRRTEXT
 70
     1
  9
$DRAGMODE
 70
     2
  9
$LTSCALE
 40
1.0
  9
$OSMODE
 70
   191
  9
$ATTMODE
 70
     1
  9
$TEXTSIZE
 40
2.0
  9
$TRACEWID
 40
1.0
  9
$TEXTSTYLE
  7
STANDARD
  9
$CLAYER
  8
OBJECT
  9
$CELTYPE
  6
BYLAYER
  9
$CECOLOR
 62
   256
  9
$CELTSCALE
 40
1.0
  9
$DELOBJ
 70
     1
  9
$DISPSILH
 70
     0
  9
$DIMSCALE
 40
1.0
  9
$DIMASZ
 40
2.5
  9
$DIMEXO
 40
0.625
  9
$DIMDLI
 40
3.799999999999999
  9
$DIMRND
 40
0.0
  9
$DIMDLE
 40
0.0
  9
$DIMEXE
 40
0.625
  9
$DIMTP
 40
0.0
  9
$DIMTM
 40
0.0
  9
$DIMTXT
 40
2.5
  9
$DIMCEN
 40
0.0
  9
$DIMTSZ
 40
0.0
  9
$DIMTOL
 70
     0
  9
$DIMLIM
 70
     0
  9
$DIMTIH
 70
     0
  9
$DIMTOH
 70
     0
  9
$DIMSE1
 70
     0
  9
$DIMSE2
 70
     0
  9
$DIMTAD
 70
     1
  9
$DIMZIN
 70
     8
  9
$DIMBLK
  1

  9
$DIMASO
 70
     1
  9
$DIMSHO
 70
     1
  9
$DIMPOST
  1

  9
$DIMAPOST
  1

  9
$DIMALT
 70
     0
  9
$DIMALTD
 70
     2
  9
$DIMALTF
 40
25.4
  9
$DIMLFAC
 40
1.0
  9
$DIMTOFL
 70
     0
  9
$DIMTVP
 40
0.0
  9
$DIMTIX
 70
     0
  9
$DIMSOXD
 70
     0
  9
$DIMSAH
 70
     0
  9
$DIMBLK1
  1

  9
$DIMBLK2
  1

  9
$DIMSTYLE
  2
STANDARD
  9
$DIMCLRD
 70
     3
  9
$DIMCLRE
 70
     0
  9
$DIMCLRT
 70
     3
  9
$DIMTFAC
 40
1.0
  9
$DIMGAP
 40
0.625
  9
$DIMJUST
 70
     0
  9
$DIMSD1
 70
     0
  9
$DIMSD2
 70
     0
  9
$DIMTOLJ
 70
     1
  9
$DIMTZIN
 70
     0
  9
$DIMALTZ
 70
     0
  9
$DIMALTTZ
 70
     0
  9
$DIMFIT
 70
     3
  9
$DIMUPT
 70
     1
  9
$DIMUNIT
 70
     2
  9
$DIMDEC
 70
     2
  9
$DIMTDEC
 70
     2
  9
$DIMALTU
 70
     2
  9
$DIMALTTD
 70
     2
  9
$DIMTXSTY
  7
STANDARD
  9
$DIMAUNIT
 70
     0
  9
$LUNITS
 70
     2
  9
$LUPREC
 70
     4
  9
$SKETCHINC
 40
1.0
  9
$FILLETRAD
 40
0.5
  9
$AUNITS
 70
     0
  9
$AUPREC
 70
     0
  9
$MENU
  1
acad
  9
$ELEVATION
 40
0.0
  9
$PELEVATION
 40
0.0
  9
$THICKNESS
 40
0.0
  9
$LIMCHECK
 70
     0
  9
$BLIPMODE
 70
     0
  9
$CHAMFERA
 40
0.3
  9
$CHAMFERB
 40
0.3
  9
$CHAMFERC
 40
20.0
  9
$CHAMFERD
 40
0.0
  9
$SKPOLY
 70
     0
  9
$TDCREATE
 40
2451019.405949073
  9
$TDUPDATE
 40
2454518.434430150
  9
$TDINDWG
 40
33.8127983912
  9
$TDUSRTIMER
 40
33.8127982060
  9
$USRTIMER
 70
     1
  9
$ANGBASE
 50
0.0
  9
$ANGDIR
 70
     0
  9
$PDMODE
 70
     0
  9
$PDSIZE
 40
0.0
  9
$PLINEWID
 40
0.2
  9
$COORDS
 70
     0
  9
$SPLFRAME
 70
     0
  9
$SPLINETYPE
 70
     6
  9
$SPLINESEGS
 70
     8
  9
$ATTDIA
 70
     0
  9
$ATTREQ
 70
     1
  9
$HANDLING
 70
 22529
  9
$HANDSEED
  5
88D
  9
$SURFTAB1
 70
     6
  9
$SURFTAB2
 70
     6
  9
$SURFTYPE
 70
     6
  9
$SURFU
 70
     6
  9
$SURFV
 70
     6
  9
$UCSNAME
  2

  9
$UCSORG
 10
0.0
 20
0.0
 30
0.0
  9
$UCSXDIR
 10
1.0
 20
0.0
 30
0.0
  9
$UCSYDIR
 10
0.0
 20
1.0
 30
0.0
  9
$PUCSNAME
  2

  9
$PUCSORG
 10
0.0
 20
0.0
 30
0.0
  9
$PUCSXDIR
 10
1.0
 20
0.0
 30
0.0
  9
$PUCSYDIR
 10
0.0
 20
1.0
 30
0.0
  9
$USERI1
 70
     0
  9
$USERI2
 70
     0
  9
$USERI3
 70
     0
  9
$USERI4
 70
     0
  9
$USERI5
 70
     0
  9
$USERR1
 40
0.0
  9
$USERR2
 40
0.0
  9
$USERR3
 40
0.0
  9
$USERR4
 40
0.0
  9
$USERR5
 40
0.0
  9
$WORLDVIEW
 70
     1
  9
$SHADEDGE
 70
     3
  9
$SHADEDIF
 70
    70
  9
$TILEMODE
 70
     1
  9
$MAXACTVP
 70
    48
  9
$PINSBASE
 10
0.0
 20
0.0
 30
0.0
  9
$PLIMCHECK
 70
     0
  9
$PEXTMIN
 10
1.000000000000000E+20
 20
1.000000000000000E+20
 30
1.000000000000000E+20
  9
$PEXTMAX
 10
-1.000000000000000E+20
 20
-1.000000000000000E+20
 30
-1.000000000000000E+20
  9
$PLIMMIN
 10
-6.350006103515625
 20
-6.349999904632567
  9
$PLIMMAX
 10
273.0499877929687
 20
209.5499939918517
  9
$UNITMODE
 70
     0
  9
$VISRETAIN
 70
     1
  9
$PLINEGEN
 70
     0
  9
$PSLTSCALE
 70
     1
  9
$TREEDEPTH
 70
  3020
  9
$PICKSTYLE
 70
     1
  9
$CMLSTYLE
  2
STANDARD
  9
$CMLJUST
 70
     0
  9
$CMLSCALE
 40
20.0
  9
$PROXYGRAPHICS
 70
     1
  9
$MEASUREMENT
 70
     1
  0
ENDSEC
  0
SECTION
  2
CLASSES
  0
CLASS
  1
LWPOLYLINE
  2
AcDbPolyline
  3
AutoCAD 2000
 90
        0
280
     0
281
     1
  0
CLASS
  1
OLE2FRAME
  2
AcDbOle2Frame
  3
AutoCAD 2000
 90
        0
280
     0
281
     1
  0
CLASS
  1
DICTIONARYVAR
  2
AcDbDictionaryVar
  3
AutoCAD 2000
 90
        0
280
     0
281
     0
  0
CLASS
  1
ACDBDICTIONARYWDFLT
  2
AcDbDictionaryWithDefault
  3
AutoCAD 2000
 90
        0
280
     0
281
     0
  0
CLASS
  1
ACDBPLACEHOLDER
  2
AcDbPlaceHolder
  3
AutoCAD 2000
 90
        0
280
     0
281
     0
  0
CLASS
  1
LAYOUT
  2
AcDbLayout
  3
AutoCAD 2000
 90
        0
280
     0
281
     0
  0
CLASS
  1
DIMASSOC
  2
AcDbDimAssoc
  3
"AcDbDimAssoc|Product Desc:     AcDim ARX App For Dimension|Company:          Autodesk, Inc.|WEB Address:      www.autodesk.com"
 90
        0
280
     0
281
     0
  0
CLASS
  1
PLOTSETTINGS
  2
AcDbPlotSettings
  3
AutoCAD 2000
 90
        0
280
     0
281
     0
  0
CLASS
  1
LONG_TRANSACTION
  2
AcDbLongTransaction
  3
AutoCAD 2000
 90
        0
280
     0
281
     0
  0
CLASS
  1
LWPOLYLINE
  2
AcDbPolyline
  3
AutoCAD 2000
 90
        0
280
     0
281
     1
  0
CLASS
  1
HATCH
  2
AcDbHatch
  3
AutoCAD 2000
 90
        0
280
     0
281
     1
  0
CLASS
  1
XRECORD
  2
AcDbXrecord
  3
AutoCAD 2000
 90
        0
280
     0
281
     0
  0
CLASS
  1
LONG_TRANSACTION
  2
AcDbLongTransaction
  3
AutoCAD 2000
 90
        0
280
     0
281
     0
  0
CLASS
  1
LWPOLYLINE
  2
AcDbPolyline
  3
AutoCAD 2000
 90
        0
280
     0
281
     1
  0
CLASS
  1
HATCH
  2
AcDbHatch
  3
AutoCAD 2000
 90
        0
280
     0
281
     1
  0
CLASS
  1
XRECORD
  2
AcDbXrecord
  3
AutoCAD 2000
 90
        0
280
     0
281
     0
  0
ENDSEC
  0
SECTION
  2
TABLES
  0
TABLE
  2
VPORT
  5
19
330
0
100
AcDbSymbolTable
 70
     4
  0
VPORT
  5
869
330
19
100
AcDbSymbolTableRecord
100
AcDbViewportTableRecord
  2
*ACTIVE
 70
     0
 10
0.0
 20
0.0
 11
1.0
 21
1.0
 12
26.17114621184728
 22
24.9388280623113
 13
0.0
 23
0.0
 14
10.0
 24
10.0
 15
10.0
 25
10.0
 16
0.0
 26
0.0
 36
1.0
 17
0.0
 27
0.0
 37
0.0
 40
95.527480087417
 41
1.493654822335025
 42
50.0
 43
0.0
 44
0.0
 50
0.0
 51
0.0
 71
     0
 72
   100
 73
     1
 74
     1
 75
     0
 76
     0
 77
     0
 78
     0
  0
ENDTAB
  0
TABLE
  2
LTYPE
  5
14
330
0
100
AcDbSymbolTable
 70
     2
  0
LTYPE
  5
15
330
14
100
AcDbSymbolTableRecord
100
AcDbLinetypeTableRecord
  2
BYBLOCK
 70
     0
  3

 72
    65
 73
     0
 40
0.0
  0
LTYPE
  5
16
330
14
100
AcDbSymbolTableRecord
100
AcDbLinetypeTableRecord
  2
BYLAYER
 70
     0
  3

 72
    65
 73
     0
 40
0.0
  0
LTYPE
  5
8
330
14
100
AcDbSymbolTableRecord
100
AcDbLinetypeTableRecord
  2
CONTINUOUS
 70
     0
  3
Solid line
 72
    65
 73
     0
 40
0.0
  0
LTYPE
  5
C5
330
14
100
AcDbSymbolTableRecord
100
AcDbLinetypeTableRecord
  2
HIDDEN
 70
     0
  3
Hidden __ __ __ __ __ __ __ __ __ __ __ __ __ _
 72
    65
 73
     2
 40
9.524999999999996
 49
6.349999999999998
 74
     0
 49
-3.174999999999998
 74
     0
  0
ENDTAB
  0
TABLE
  2
LAYER
  5
10
330
0
100
AcDbSymbolTable
 70
     4
  0
LAYER
  5
4
330
10
100
AcDbSymbolTableRecord
100
AcDbLayerTableRecord
  2
0
 70
     0
 62
     7
  6
CONTINUOUS
  0
LAYER
  5
23
330
10
100
AcDbSymbolTableRecord
100
AcDbLayerTableRecord
  2
OBJECT
 70
     0
 62
     7
  6
CONTINUOUS
  0
LAYER
  5
C4
330
10
100
AcDbSymbolTableRecord
100
AcDbLayerTableRecord
  2
TEXT
 70
     0
 62
     3
  6
CONTINUOUS
  0
LAYER
  5
111
330
10
100
AcDbSymbolTableRecord
100
AcDbLayerTableRecord
  2
DEFPOINTS
 70
     0
 62
     7
  6
CONTINUOUS
  0
ENDTAB
  0
TABLE
  2
STYLE
  5
11
330
0
100
AcDbSymbolTable
 70
     2
  0
STYLE
  5
12
330
11
100
AcDbSymbolTableRecord
100
AcDbTextStyleTableRecord
  2
STANDARD
 70
     0
 40
0.0
 41
1.0
 50
0.0
 71
     0
 42
2.0
  3
simplex.shx
  4
bigfont.shx
  0
ENDTAB
  0
TABLE
  2
VIEW
  5
17
330
0
100
AcDbSymbolTable
 70
     0
  0
ENDTAB
  0
TABLE
  2
UCS
  5
18
330
0
100
AcDbSymbolTable
 70
     0
  0
ENDTAB
  0
TABLE
  2
APPID
  5
1B
330
0
100
AcDbSymbolTable
 70
     1
  0
APPID
  5
1C
330
1B
100
AcDbSymbolTableRecord
100
AcDbRegAppTableRecord
  2
ACAD
 70
     0
  0
ENDTAB
  0
TABLE
  2
DIMSTYLE
  5
1D
330
0
100
AcDbSymbolTable
 70
     1
  0
DIMSTYLE
105
1E
330
1D
100
AcDbSymbolTableRecord
100
AcDbDimStyleTableRecord
  2
STANDARD
 70
     0
  3

  4

  5

  6

  7

 40
1.0
 41
2.5
 42
0.625
 43
3.799999999999999
 44
0.625
 45
0.0
 46
0.0
 47
0.0
 48
0.0
140
2.5
141
0.0
142
0.0
143
25.4
144
1.0
145
0.0
146
1.0
147
0.625
 71
     0
 72
     0
 73
     0
 74
     0
 75
     0
 76
     0
 77
     1
 78
     8
170
     0
171
     2
172
     0
173
     0
174
     0
175
     0
176
     3
177
     0
178
     3
270
     2
271
     2
272
     2
273
     2
274
     2
340
12
275
     0
280
     0
281
     0
282
     0
283
     1
284
     0
285
     0
286
     0
287
     3
288
     1
  0
ENDTAB
  0
TABLE
  2
BLOCK_RECORD
  5
1
330
0
100
AcDbSymbolTable
 70
     4
  0
BLOCK_RECORD
  5
2
102
{ACAD_XDICTIONARY
360
6A3
102
}
330
1
100
AcDbSymbolTableRecord
100
AcDbBlockTableRecord
  2
*MODEL_SPACE
  0
BLOCK_RECORD
  5
C
102
{ACAD_XDICTIONARY
360
6A5
102
}
330
1
100
AcDbSymbolTableRecord
100
AcDbBlockTableRecord
  2
*PAPER_SPACE
  0
BLOCK_RECORD
  5
82B
330
1
100
AcDbSymbolTableRecord
100
AcDbBlockTableRecord
  2
*D2
  0
BLOCK_RECORD
  5
838
330
1
100
AcDbSymbolTableRecord
100
AcDbBlockTableRecord
  2
*D3
  0
ENDTAB
  0
ENDSEC
  0
SECTION
  2
BLOCKS
  0
BLOCK
  5
3
330
2
100
AcDbEntity
  8
0
100
AcDbBlockBegin
  2
*MODEL_SPACE
 70
     2
 10
0.0
 20
0.0
 30
0.0
  3
*MODEL_SPACE
  1

  0
ENDBLK
  5
9
330
2
100
AcDbEntity
  8
0
100
AcDbBlockEnd
  0
BLOCK
  5
D
330
C
100
AcDbEntity
 67
     1
  8
0
100
AcDbBlockBegin
  2
*PAPER_SPACE
 70
     0
 10
0.0
 20
0.0
 30
0.0
  3
*PAPER_SPACE
  1

  0
ENDBLK
  5
E
330
C
100
AcDbEntity
 67
     1
  8
0
100
AcDbBlockEnd
  0
BLOCK
  5
835
330
82B
100
AcDbEntity
  8
0
100
AcDbBlockBegin
  2
*D2
 70
     1
 10
0.0
 20
0.0
 30
0.0
  3
*D2
  1

  0
LINE
  5
82C
330
82B
100
AcDbEntity
  8
OBJECT
 62
     0
100
AcDbLine
 10
1.891325779773637
 20
33.54376233894
 30
0.0
 11
1.891325779773638
 21
40.21379654479682
 31
0.0
  0
LINE
  5
82D
330
82B
100
AcDbEntity
  8
OBJECT
 62
     0
100
AcDbLine
 10
24.69132577977369
 20
31.11376233893993
 30
0.0
 11
24.69132577977369
 21
40.21379654479682
 31
0.0
  0
LINE
  5
82E
330
82B
100
AcDbEntity
  8
OBJECT
 62
     3
100
AcDbLine
 10
4.391325779773637
 20
39.58879654479682
 30
0.0
 11
22.19132577977369
 21
39.58879654479682
 31
0.0
  0
SOLID
  5
82F
330
82B
100
AcDbEntity
  8
OBJECT
 62
     3
100
AcDbTrace
 10
4.391325779773637
 20
40.00546321146348
 30
0.0
 11
4.391325779773637
 21
39.17212987813016
 31
0.0
 12
1.891325779773638
 22
39.58879654479682
 32
0.0
 13
1.891325779773638
 23
39.58879654479682
 33
0.0
  0
SOLID
  5
830
330
82B
100
AcDbEntity
  8
OBJECT
 62
     3
100
AcDbTrace
 10
22.19132577977369
 20
40.00546321146348
 30
0.0
 11
22.19132577977369
 21
39.17212987813016
 31
0.0
 12
24.69132577977369
 22
39.58879654479682
 32
0.0
 13
24.69132577977369
 23
39.58879654479682
 33
0.0
  0
MTEXT
  5
831
330
82B
100
AcDbEntity
  8
OBJECT
 62
     0
100
AcDbMText
 10
13.99809804854612
 20
41.46379654479682
 30
0.0
 40
2.5
 41
0.0
 71
     5
 72
     1
  1
\A1;22.8
1001
ACAD
1000
MTEXTBEGIN
1070
    73
1070
     1
1070
    44
1040
1.0
1070
    74
1070
     0
1000
MTEXTEND
  0
POINT
  5
832
330
82B
100
AcDbEntity
  8
DEFPOINTS
 62
     0
100
AcDbPoint
 10
1.891325779773637
 20
32.91876233894
 30
0.0
  0
POINT
  5
833
330
82B
100
AcDbEntity
  8
DEFPOINTS
 62
     0
100
AcDbPoint
 10
24.69132577977369
 20
30.48876233893993
 30
0.0
  0
POINT
  5
834
330
82B
100
AcDbEntity
  8
DEFPOINTS
 62
     0
100
AcDbPoint
 10
24.69132577977369
 20
39.58879654479682
 30
0.0
  0
ENDBLK
  5
836
330
82B
100
AcDbEntity
  8
0
100
AcDbBlockEnd
  0
BLOCK
  5
842
330
838
100
AcDbEntity
  8
0
100
AcDbBlockBegin
  2
*D3
 70
     1
 10
0.0
 20
0.0
 30
0.0
  3
*D3
  1

  0
LINE
  5
839
330
838
100
AcDbEntity
  8
OBJECT
 62
     0
100
AcDbLine
 10
43.29466050953737
 20
33.54376233894
 30
0.0
 11
43.29466050953737
 21
43.84602009689439
 31
0.0
  0
LINE
  5
83A
330
838
100
AcDbEntity
  8
OBJECT
 62
     0
100
AcDbLine
 10
50.44466050953735
 20
33.54376233894
 30
0.0
 11
50.44466050953735
 21
43.84602009689439
 31
0.0
  0
LINE
  5
83B
330
838
100
AcDbEntity
  8
OBJECT
 62
     3
100
AcDbLine
 10
45.79466050953737
 20
43.22102009689439
 30
0.0
 11
47.94466050953735
 21
43.22102009689439
 31
0.0
  0
SOLID
  5
83C
330
838
100
AcDbEntity
  8
OBJECT
 62
     3
100
AcDbTrace
 10
45.79466050953737
 20
43.63768676356105
 30
0.0
 11
45.79466050953737
 21
42.80435343022772
 31
0.0
 12
43.29466050953737
 22
43.22102009689439
 32
0.0
 13
43.29466050953737
 23
43.22102009689439
 33
0.0
  0
SOLID
  5
83D
330
838
100
AcDbEntity
  8
OBJECT
 62
     3
100
AcDbTrace
 10
47.94466050953735
 20
43.63768676356105
 30
0.0
 11
47.94466050953735
 21
42.80435343022772
 31
0.0
 12
50.44466050953735
 22
43.22102009689439
 32
0.0
 13
50.44466050953735
 23
43.22102009689439
 33
0.0
  0
MTEXT
  5
83E
330
838
100
AcDbEntity
  8
OBJECT
 62
     3
100
AcDbMText
 10
46.86966050953736
 20
45.09602009689439
 30
0.0
 40
2.5
 41
0.0
 71
     5
 72
     1
  1
\A1;7.15
1001
ACAD
1000
MTEXTBEGIN
1070
    73
1070
     1
1070
    44
1040
1.0
1070
    74
1070
     0
1000
MTEXTEND
  0
POINT
  5
83F
330
838
100
AcDbEntity
  8
DEFPOINTS
 62
     0
100
AcDbPoint
 10
43.29466050953737
 20
32.91876233894
 30
0.0
  0
POINT
  5
840
330
838
100
AcDbEntity
  8
DEFPOINTS
 62
     0
100
AcDbPoint
 10
50.44466050953735
 20
32.91876233894
 30
0.0
  0
POINT
  5
841
330
838
100
AcDbEntity
  8
DEFPOINTS
 62
     0
100
AcDbPoint
 10
50.44466050953735
 20
43.22102009689439
 30
0.0
  0
ENDBLK
  5
843
330
838
100
AcDbEntity
  8
0
100
AcDbBlockEnd
  0
ENDSEC
  0
SECTION
  2
ENTITIES
  0
TEXT
  5
10F
330
2
100
AcDbEntity
  8
OBJECT
100
AcDbText
 10
2.089051471156608
 20
46.62469390793861
 30
0.0
 40
2.5
  1
1-178128-4  （AMP）
100
AcDbText
  0
LINE
  5
6B1
330
2
100
AcDbEntity
  8
TEXT
  6
HIDDEN
 48
0.1
100
AcDbLine
 10
7.391325779773637
 20
7.468762338939961
 30
0.0
 11
7.391325779773637
 21
13.4687623389399
 31
0.0
  0
LINE
  5
6B2
330
2
100
AcDbEntity
  8
TEXT
  6
HIDDEN
 48
0.1
100
AcDbLine
 10
5.391325779773637
 20
7.468762338939846
 30
0.0
 11
5.391325779773637
 21
13.46876233893978
 31
0.0
  0
LINE
  5
6B3
330
2
100
AcDbEntity
  8
0
  6
CONTINUOUS
 62
     7
100
AcDbLine
 10
8.391325779773637
 20
30.78876233893989
 30
0.0
 11
8.391325779773637
 21
6.46876233893996
 31
0.0
  0
LINE
  5
6B4
330
2
100
AcDbEntity
  8
0
  6
CONTINUOUS
 62
     7
100
AcDbLine
 10
2.191325779773592
 20
32.91876233894
 30
0.0
 11
2.191325779773592
 21
4.33876233893985
 31
0.0
  0
LINE
  5
6B5
330
2
100
AcDbEntity
  8
0
  6
CONTINUOUS
 62
     7
100
AcDbLine
 10
1.891325779773637
 20
32.91876233894
 30
0.0
 11
1.891325779773637
 21
4.33876233893985
 31
0.0
  0
LINE
  5
6B6
330
2
100
AcDbEntity
  8
0
  6
CONTINUOUS
 62
     7
100
AcDbLine
 10
24.69132577977369
 20
6.768762338939914
 30
0.0
 11
24.69132577977369
 21
13.12876233893992
 31
0.0
  0
LINE
  5
6B7
330
2
100
AcDbEntity
  8
0
  6
CONTINUOUS
 62
     7
100
AcDbLine
 10
14.29132577977372
 20
6.258762338939922
 30
0.0
 11
20.30493896917368
 21
6.46876233893996
 31
0.0
  0
LINE
  5
6B8
330
2
100
AcDbEntity
  8
0
  6
CONTINUOUS
 62
     7
100
AcDbLine
 10
24.39132577977364
 20
6.46876233893996
 30
0.0
 11
5.091325779773682
 21
6.46876233893996
 31
0.0
  0
LINE
  5
6B9
330
2
100
AcDbEntity
  8
0
  6
CONTINUOUS
 62
     7
100
AcDbLine
 10
24.39132577977364
 20
6.768762338939914
 30
0.0
 11
4.791325779773727
 21
6.768762338939914
 31
0.0
  0
LINE
  5
6BA
330
2
100
AcDbEntity
  8
0
  6
CONTINUOUS
 62
     7
100
AcDbLine
 10
24.69132577977369
 20
12.29876233893988
 30
0.0
 11
8.391325779773637
 21
12.29876233893988
 31
0.0
  0
ARC
  5
6BB
330
2
100
AcDbEntity
  8
0
  6
CONTINUOUS
 62
     7
100
AcDbCircle
 10
4.891325779773637
 20
2.238762338939999
 30
0.0
 40
1.0
100
AcDbArc
 50
270.0
 51
328.9414992941998
  0
ARC
  5
6BC
330
2
100
AcDbEntity
  8
0
  6
CONTINUOUS
 62
     7
100
AcDbCircle
 10
3.391325779773636
 20
2.238762338939999
 30
0.0
 40
1.0
100
AcDbArc
 50
180.0
 51
270.0
  0
LINE
  5
6BD
330
2
100
AcDbEntity
  8
0
  6
CONTINUOUS
 62
     7
100
AcDbLine
 10
4.891325779773637
 20
1.238762338939942
 30
0.0
 11
3.391325779773636
 21
1.238762338939942
 31
0.0
  0
TEXT
  5
6BE
330
2
100
AcDbEntity
  8
TEXT
100
AcDbText
 10
2.979591709721489
 20
11.20999295519288
 30
0.0
 40
1.0
  1
4
 50
270.0
100
AcDbText
  0
LINE
  5
6BF
330
2
100
AcDbEntity
  8
TEXT
  6
HIDDEN
 48
0.1
100
AcDbLine
 10
2.391325779773637
 20
10.00876233894003
 30
0.0
 11
4.391325779773636
 21
10.00876233894003
 31
0.0
  0
LINE
  5
6C0
330
2
100
AcDbEntity
  8
TEXT
  6
HIDDEN
 48
0.1
100
AcDbLine
 10
2.391325779773637
 20
12.00876233894003
 30
0.0
 11
4.391325779773636
 21
12.00876233894003
 31
0.0
  0
LINE
  5
6C1
330
2
100
AcDbEntity
  8
0
  6
CONTINUOUS
 62
     7
100
AcDbLine
 10
5.998450837923654
 20
2.138762338939919
 30
0.0
 11
2.396338342673629
 21
2.138762338939919
 31
0.0
  0
LINE
  5
6C2
330
2
100
AcDbEntity
  8
0
  6
CONTINUOUS
 62
     7
100
AcDbLine
 10
6.359801515073627
 20
2.738762338939941
 30
0.0
 11
2.391325779773637
 21
2.738762338939941
 31
0.0
  0
LINE
  5
6C3
330
2
100
AcDbEntity
  8
0
  6
CONTINUOUS
 62
     7
100
AcDbLine
 10
2.191325779773592
 20
4.038762338939895
 30
0.0
 11
4.791325779773727
 21
4.038762338939895
 31
0.0
  0
LINE
  5
6C4
330
2
100
AcDbEntity
  8
0
  6
CONTINUOUS
 62
     7
100
AcDbLine
 10
2.191325779773592
 20
4.33876233893985
 30
0.0
 11
4.791325779773727
 21
4.33876233893985
 31
0.0
  0
LINE
  5
6C5
330
2
100
AcDbEntity
  8
0
  6
CONTINUOUS
 62
     7
100
AcDbLine
 10
2.191325779773592
 20
4.038762338939895
 30
0.0
 11
1.891325779773637
 21
4.33876233893985
 31
0.0
  0
LINE
  5
6C6
330
2
100
AcDbEntity
  8
0
  6
CONTINUOUS
 62
     7
100
AcDbLine
 10
2.191325779773592
 20
4.33876233893985
 30
0.0
 11
2.041325779773728
 21
4.188762338939986
 31
0.0
  0
LINE
  5
6C7
330
2
100
AcDbEntity
  8
0
  6
CONTINUOUS
 62
     7
100
AcDbLine
 10
2.391325779773637
 20
4.038762338939895
 30
0.0
 11
2.391325779773637
 21
2.238762338939942
 31
0.0
  0
LINE
  5
6C8
330
2
100
AcDbEntity
  8
TEXT
  6
HIDDEN
 48
0.1
100
AcDbLine
 10
2.391325779773637
 20
10.00876233894003
 30
0.0
 11
2.391325779773637
 21
12.00876233894003
 31
0.0
  0
LINE
  5
6C9
330
2
100
AcDbEntity
  8
0
  6
CONTINUOUS
 62
     7
100
AcDbLine
 10
5.091325779773682
 20
5.758762338939922
 30
0.0
 11
11.11227824147374
 21
5.758762338939922
 31
0.0
  0
LINE
  5
6CA
330
2
100
AcDbEntity
  8
0
  6
CONTINUOUS
 62
     7
100
AcDbLine
 10
5.091325779773682
 20
6.46876233893996
 30
0.0
 11
4.791325779773727
 21
6.768762338939914
 31
0.0
  0
LINE
  5
6CB
330
2
100
AcDbEntity
  8
0
  6
CONTINUOUS
 62
     7
100
AcDbLine
 10
5.965226186673702
 20
6.46876233893996
 30
0.0
 11
5.091325779773682
 21
6.369193964489987
 31
0.0
  0
LINE
  5
6CC
330
2
100
AcDbEntity
  8
0
  6
CONTINUOUS
 62
     7
100
AcDbLine
 10
4.791325779773727
 20
4.33876233893985
 30
0.0
 11
4.941325779773592
 21
4.188762338939986
 31
0.0
  0
LINE
  5
6CD
330
2
100
AcDbEntity
  8
0
  6
CONTINUOUS
 62
     7
100
AcDbLine
 10
5.091325779773682
 20
4.33876233893985
 30
0.0
 11
4.791325779773727
 21
4.038762338939895
 31
0.0
  0
LINE
  5
6CE
330
2
100
AcDbEntity
  8
0
  6
CONTINUOUS
 62
     7
100
AcDbLine
 10
6.891325779773636
 20
3.621324844139925
 30
0.0
 11
5.747966764473744
 21
1.72284933918987
 31
0.0
  0
LINE
  5
6CF
330
2
100
AcDbEntity
  8
0
  6
CONTINUOUS
 62
     7
100
AcDbLine
 10
5.091325779773682
 20
4.33876233893985
 30
0.0
 11
5.091325779773682
 21
6.46876233893996
 31
0.0
  0
LINE
  5
6D0
330
2
100
AcDbEntity
  8
0
  6
CONTINUOUS
 62
     7
100
AcDbLine
 10
4.791325779773727
 20
4.33876233893985
 30
0.0
 11
4.791325779773727
 21
6.768762338939914
 31
0.0
  0
LINE
  5
6D1
330
2
100
AcDbEntity
  8
0
  6
CONTINUOUS
 62
     7
100
AcDbLine
 10
9.591325779773683
 20
5.758762338939922
 30
0.0
 11
6.891325779773636
 21
3.621324844139925
 31
0.0
  0
LINE
  5
6D2
330
2
100
AcDbEntity
  8
0
  6
CONTINUOUS
 62
     7
100
AcDbLine
 10
11.09132577977368
 20
5.1587623389399
 30
0.0
 11
11.39132577977363
 21
5.1587623389399
 31
0.0
  0
LINE
  5
6D3
330
2
100
AcDbEntity
  8
0
  6
CONTINUOUS
 62
     7
100
AcDbLine
 10
11.11227824147374
 20
5.758762338939922
 30
0.0
 11
11.09132577977368
 21
5.1587623389399
 31
0.0
  0
LINE
  5
6D4
330
2
100
AcDbEntity
  8
0
  6
CONTINUOUS
 62
     7
100
AcDbLine
 10
11.39132577977363
 20
5.1587623389399
 30
0.0
 11
14.29132577977372
 21
6.258762338939922
 31
0.0
  0
TEXT
  5
6D5
330
2
100
AcDbEntity
  8
TEXT
100
AcDbText
 10
5.93134435237971
 20
12.42404295028443
 30
0.0
 40
1.0
  1
AMP
 50
270.0
 41
1.5
100
AcDbText
  0
LINE
  5
6D6
330
2
100
AcDbEntity
  8
TEXT
  6
HIDDEN
 48
0.1
100
AcDbLine
 10
4.391325779773636
 20
10.00876233894003
 30
0.0
 11
4.391325779773636
 21
12.00876233894003
 31
0.0
  0
LINE
  5
6D7
330
2
100
AcDbEntity
  8
TEXT
  6
HIDDEN
 48
0.1
100
AcDbLine
 10
5.391325779773637
 20
7.468762338939902
 30
0.0
 11
7.391325779773525
 21
7.468762338939961
 31
0.0
  0
LINE
  5
6D8
330
2
100
AcDbEntity
  8
0
  6
CONTINUOUS
 62
     7
100
AcDbLine
 10
24.39132577977364
 20
12.29876233893988
 30
0.0
 11
24.39132577977364
 21
6.768762338939914
 31
0.0
  0
LINE
  5
6D9
330
2
100
AcDbEntity
  8
0
  6
CONTINUOUS
 62
     7
100
AcDbLine
 10
24.39132577977364
 20
6.46876233893996
 30
0.0
 11
24.69132577977369
 21
6.768762338939914
 31
0.0
  0
LINE
  5
6DA
330
2
100
AcDbEntity
  8
0
  6
CONTINUOUS
 62
     7
100
AcDbLine
 10
24.39132577977364
 20
6.768762338939914
 30
0.0
 11
24.54132577977373
 21
6.618762338939937
 31
0.0
  0
LINE
  5
6DB
330
2
100
AcDbEntity
  8
0
  6
CONTINUOUS
 62
     7
100
AcDbLine
 10
24.69132577977369
 20
13.12876233893992
 30
0.0
 11
11.89132577977363
 21
13.12876233893992
 31
0.0
  0
LINE
  5
6DC
330
2
100
AcDbEntity
  8
0
  6
CONTINUOUS
 62
     7
100
AcDbLine
 10
24.69132577977369
 20
13.96876233893995
 30
0.0
 11
11.89132577977363
 21
13.96876233893995
 31
0.0
  0
LINE
  5
6DD
330
2
100
AcDbEntity
  8
0
  6
CONTINUOUS
 62
     7
100
AcDbLine
 10
24.69132577977369
 20
14.79876233893988
 30
0.0
 11
8.391325779773637
 21
14.79876233893988
 31
0.0
  0
LINE
  5
6DE
330
2
100
AcDbEntity
  8
0
  6
CONTINUOUS
 62
     7
100
AcDbLine
 10
24.69132577977369
 20
17.37876233893992
 30
0.0
 11
8.391325779773637
 21
17.37876233893992
 31
0.0
  0
LINE
  5
6DF
330
2
100
AcDbEntity
  8
0
  6
CONTINUOUS
 62
     7
100
AcDbLine
 10
24.69132577977369
 20
18.20876233893996
 30
0.0
 11
11.89132577977363
 21
18.20876233893996
 31
0.0
  0
LINE
  5
6E0
330
2
100
AcDbEntity
  8
0
  6
CONTINUOUS
 62
     7
100
AcDbLine
 10
24.69132577977369
 20
19.04876233893988
 30
0.0
 11
11.89132577977363
 21
19.04876233893988
 31
0.0
  0
LINE
  5
6E1
330
2
100
AcDbEntity
  8
0
  6
CONTINUOUS
 62
     7
100
AcDbLine
 10
24.69132577977369
 20
19.87876233893992
 30
0.0
 11
8.391325779773637
 21
19.87876233893992
 31
0.0
  0
LINE
  5
6E2
330
2
100
AcDbEntity
  8
0
  6
CONTINUOUS
 62
     7
100
AcDbLine
 10
24.69132577977369
 20
23.28876233893989
 30
0.0
 11
8.391325779773637
 21
23.28876233893989
 31
0.0
  0
LINE
  5
6E3
330
2
100
AcDbEntity
  8
0
  6
CONTINUOUS
 62
     7
100
AcDbLine
 10
24.69132577977369
 20
24.12876233893992
 30
0.0
 11
8.391325779773637
 21
24.12876233893992
 31
0.0
  0
LINE
  5
6E4
330
2
100
AcDbEntity
  8
0
  6
CONTINUOUS
 62
     7
100
AcDbLine
 10
24.39132577977364
 20
30.48876233893993
 30
0.0
 11
4.791325779773727
 21
30.48876233893993
 31
0.0
  0
LINE
  5
6E5
330
2
100
AcDbEntity
  8
0
  6
CONTINUOUS
 62
     7
100
AcDbLine
 10
24.39132577977364
 20
30.78876233893989
 30
0.0
 11
5.091325779773682
 21
30.78876233893989
 31
0.0
  0
LINE
  5
6E6
330
2
100
AcDbEntity
  8
0
  6
CONTINUOUS
 62
     7
100
AcDbLine
 10
20.30493896917368
 20
30.78876233893989
 30
0.0
 11
14.29132577977372
 21
30.99876233893993
 31
0.0
  0
TEXT
  5
6E7
330
2
100
AcDbEntity
  8
TEXT
100
AcDbText
 10
2.979591709721603
 20
21.36999295519289
 30
0.0
 40
1.0
  1
2
 50
270.0
100
AcDbText
  0
LINE
  5
6E8
330
2
100
AcDbEntity
  8
TEXT
  6
HIDDEN
 48
0.1
100
AcDbLine
 10
2.391325779773637
 20
20.16876233894005
 30
0.0
 11
4.391325779773636
 21
20.16876233894005
 31
0.0
  0
LINE
  5
6E9
330
2
100
AcDbEntity
  8
TEXT
  6
HIDDEN
 48
0.1
100
AcDbLine
 10
2.391325779773637
 20
22.16876233894006
 30
0.0
 11
4.391325779773636
 21
22.16876233894006
 31
0.0
  0
LINE
  5
6EA
330
2
100
AcDbEntity
  8
TEXT
  6
HIDDEN
 48
0.1
100
AcDbLine
 10
2.391325779773637
 20
15.08876233894001
 30
0.0
 11
4.391325779773636
 21
15.08876233894001
 31
0.0
  0
TEXT
  5
6EB
330
2
100
AcDbEntity
  8
TEXT
100
AcDbText
 10
2.979591709721489
 20
16.28999295519285
 30
0.0
 40
1.0
  1
3
 50
270.0
100
AcDbText
  0
LINE
  5
6EC
330
2
100
AcDbEntity
  8
TEXT
  6
HIDDEN
 48
0.1
100
AcDbLine
 10
2.391325779773637
 20
17.08876233894001
 30
0.0
 11
4.391325779773636
 21
17.08876233894001
 31
0.0
  0
LINE
  5
6ED
330
2
100
AcDbEntity
  8
TEXT
  6
HIDDEN
 48
0.1
100
AcDbLine
 10
2.391325779773637
 20
15.08876233894001
 30
0.0
 11
2.391325779773637
 21
17.08876233894001
 31
0.0
  0
LINE
  5
6EE
330
2
100
AcDbEntity
  8
TEXT
  6
HIDDEN
 48
0.1
100
AcDbLine
 10
2.391325779773637
 20
20.16876233894005
 30
0.0
 11
2.391325779773637
 21
22.16876233894006
 31
0.0
  0
LINE
  5
6EF
330
2
100
AcDbEntity
  8
0
  6
CONTINUOUS
 62
     7
100
AcDbLine
 10
11.89132577977363
 20
18.20876233893996
 30
0.0
 11
11.89132577977363
 21
19.04876233893988
 31
0.0
  0
LINE
  5
6F0
330
2
100
AcDbEntity
  8
TEXT
  6
HIDDEN
 48
0.1
100
AcDbLine
 10
4.391325779773636
 20
15.08876233894001
 30
0.0
 11
4.391325779773636
 21
17.08876233894001
 31
0.0
  0
LINE
  5
6F1
330
2
100
AcDbEntity
  8
TEXT
  6
HIDDEN
 48
0.1
100
AcDbLine
 10
5.391325779773637
 20
13.46876233893984
 30
0.0
 11
7.391325779773637
 21
13.4687623389399
 31
0.0
  0
LINE
  5
6F2
330
2
100
AcDbEntity
  8
0
  6
CONTINUOUS
 62
     7
100
AcDbLine
 10
11.89132577977363
 20
13.12876233893992
 30
0.0
 11
11.89132577977363
 21
13.96876233893995
 31
0.0
  0
LINE
  5
6F3
330
2
100
AcDbEntity
  8
TEXT
  6
HIDDEN
 48
0.1
100
AcDbLine
 10
4.391325779773636
 20
20.16876233894005
 30
0.0
 11
4.391325779773636
 21
22.16876233894006
 31
0.0
  0
LINE
  5
6F4
330
2
100
AcDbEntity
  8
0
  6
CONTINUOUS
 62
     7
100
AcDbLine
 10
11.89132577977363
 20
23.28876233893989
 30
0.0
 11
11.89132577977363
 21
24.12876233893992
 31
0.0
  0
TEXT
  5
6F5
330
2
100
AcDbEntity
  8
TEXT
100
AcDbText
 10
2.979591709721603
 20
26.44999295519288
 30
0.0
 40
1.0
  1
1
 50
270.0
100
AcDbText
  0
LINE
  5
6F6
330
2
100
AcDbEntity
  8
TEXT
  6
HIDDEN
 48
0.1
100
AcDbLine
 10
2.391325779773751
 20
27.24876233894004
 30
0.0
 11
4.391325779773751
 21
27.24876233894004
 31
0.0
  0
LINE
  5
6F7
330
2
100
AcDbEntity
  8
TEXT
  6
HIDDEN
 48
0.1
100
AcDbLine
 10
2.391325779773637
 20
25.24876233894004
 30
0.0
 11
4.391325779773636
 21
25.24876233894004
 31
0.0
  0
LINE
  5
6F8
330
2
100
AcDbEntity
  8
0
  6
CONTINUOUS
 62
     7
100
AcDbLine
 10
4.791325779773727
 20
33.21876233893995
 30
0.0
 11
2.191325779773592
 21
33.21876233893995
 31
0.0
  0
LINE
  5
6F9
330
2
100
AcDbEntity
  8
0
  6
CONTINUOUS
 62
     7
100
AcDbLine
 10
6.359801515073627
 20
34.51876233893991
 30
0.0
 11
2.391325779773637
 21
34.51876233893991
 31
0.0
  0
LINE
  5
6FA
330
2
100
AcDbEntity
  8
0
  6
CONTINUOUS
 62
     7
100
AcDbLine
 10
5.998450837923654
 20
35.11876233893993
 30
0.0
 11
2.396338342673629
 21
35.11876233893993
 31
0.0
  0
ARC
  5
6FB
330
2
100
AcDbEntity
  8
0
  6
CONTINUOUS
 62
     7
100
AcDbCircle
 10
3.391325779773636
 20
35.01876233893996
 30
0.0
 40
1.0
100
AcDbArc
 50
90.0
 51
180.0
  0
LINE
  5
6FC
330
2
100
AcDbEntity
  8
0
  6
CONTINUOUS
 62
     7
100
AcDbLine
 10
4.791325779773727
 20
32.91876233894
 30
0.0
 11
2.191325779773592
 21
32.91876233894
 31
0.0
  0
LINE
  5
6FD
330
2
100
AcDbEntity
  8
TEXT
  6
HIDDEN
 48
0.1
100
AcDbLine
 10
2.391325779773637
 20
25.24876233894004
 30
0.0
 11
2.391325779773751
 21
27.24876233894004
 31
0.0
  0
LINE
  5
6FE
330
2
100
AcDbEntity
  8
0
  6
CONTINUOUS
 62
     7
100
AcDbLine
 10
2.391325779773637
 20
35.01876233893991
 30
0.0
 11
2.391325779773637
 21
33.21876233893995
 31
0.0
  0
LINE
  5
6FF
330
2
100
AcDbEntity
  8
0
  6
CONTINUOUS
 62
     7
100
AcDbLine
 10
2.191325779773592
 20
32.91876233894
 30
0.0
 11
2.041325779773728
 21
33.06876233893986
 31
0.0
  0
LINE
  5
700
330
2
100
AcDbEntity
  8
0
  6
CONTINUOUS
 62
     7
100
AcDbLine
 10
1.891325779773637
 20
32.91876233894
 30
0.0
 11
2.191325779773592
 21
33.21876233893995
 31
0.0
  0
TEXT
  5
701
330
2
100
AcDbEntity
  8
OBJECT
100
AcDbText
 10
9.979591709721489
 20
28.9899929551928
 30
0.0
 40
1.0
  1
X
 50
270.0
100
AcDbText
  0
LINE
  5
702
330
2
100
AcDbEntity
  8
TEXT
  6
HIDDEN
 48
0.1
100
AcDbLine
 10
9.391325779773637
 20
29.78876233893995
 30
0.0
 11
11.39132577977363
 21
29.78876233893995
 31
0.0
  0
LINE
  5
703
330
2
100
AcDbEntity
  8
TEXT
  6
HIDDEN
 48
0.1
100
AcDbLine
 10
9.391325779773637
 20
27.78876233893995
 30
0.0
 11
11.39132577977363
 21
27.78876233893995
 31
0.0
  0
TEXT
  5
704
330
2
100
AcDbEntity
  8
TEXT
100
AcDbText
 10
5.981212309040415
 20
29.54319391830358
 30
0.0
 40
1.0
  1
D-3
 50
270.0
 41
0.9
100
AcDbText
  0
LINE
  5
705
330
2
100
AcDbEntity
  8
TEXT
  6
HIDDEN
 48
0.1
100
AcDbLine
 10
9.391325779773637
 20
27.78876233893995
 30
0.0
 11
9.391325779773637
 21
29.78876233893995
 31
0.0
  0
LINE
  5
706
330
2
100
AcDbEntity
  8
TEXT
  6
HIDDEN
 48
0.1
100
AcDbLine
 10
7.391325779773637
 20
26.78876233894
 30
0.0
 11
7.391325779773637
 21
29.78876233893995
 31
0.0
  0
LINE
  5
707
330
2
100
AcDbEntity
  8
TEXT
  6
HIDDEN
 48
0.1
100
AcDbLine
 10
5.391325779773637
 20
26.78876233893989
 30
0.0
 11
5.391325779773637
 21
29.78876233893983
 31
0.0
  0
LINE
  5
708
330
2
100
AcDbEntity
  8
TEXT
  6
HIDDEN
 48
0.1
100
AcDbLine
 10
5.391325779773637
 20
26.78876233893989
 30
0.0
 11
7.391325779773637
 21
26.78876233893995
 31
0.0
  0
LINE
  5
709
330
2
100
AcDbEntity
  8
TEXT
  6
HIDDEN
 48
0.1
100
AcDbLine
 10
4.391325779773751
 20
25.24876233894004
 30
0.0
 11
4.391325779773751
 21
27.24876233894004
 31
0.0
  0
LINE
  5
70A
330
2
100
AcDbEntity
  8
TEXT
  6
HIDDEN
 48
0.1
100
AcDbLine
 10
5.391325779773637
 20
29.7887623389399
 30
0.0
 11
7.391325779773637
 21
29.78876233893995
 31
0.0
  0
LINE
  5
70B
330
2
100
AcDbEntity
  8
TEXT
  6
HIDDEN
 48
0.1
100
AcDbLine
 10
11.39132577977363
 20
27.78876233893995
 30
0.0
 11
11.39132577977363
 21
29.78876233893995
 31
0.0
  0
LINE
  5
70C
330
2
100
AcDbEntity
  8
0
  6
CONTINUOUS
 62
     7
100
AcDbLine
 10
11.11227824147374
 20
31.49876233893993
 30
0.0
 11
5.091325779773682
 21
31.49876233893993
 31
0.0
  0
LINE
  5
70D
330
2
100
AcDbEntity
  8
0
  6
CONTINUOUS
 62
     7
100
AcDbLine
 10
4.891325779773637
 20
36.01876233893991
 30
0.0
 11
3.391325779773636
 21
36.01876233893991
 31
0.0
  0
ARC
  5
70E
330
2
100
AcDbEntity
  8
0
  6
CONTINUOUS
 62
     7
100
AcDbCircle
 10
4.891325779773637
 20
35.01876233893996
 30
0.0
 40
1.0
100
AcDbArc
 50
31.0585007058
 51
90.0
  0
LINE
  5
70F
330
2
100
AcDbEntity
  8
0
  6
CONTINUOUS
 62
     7
100
AcDbLine
 10
6.891325779773636
 20
33.63619983373992
 30
0.0
 11
5.747966764473744
 21
35.53467533868998
 31
0.0
  0
LINE
  5
710
330
2
100
AcDbEntity
  8
0
  6
CONTINUOUS
 62
     7
100
AcDbLine
 10
5.091325779773682
 20
30.88833071338986
 30
0.0
 11
5.965226186673702
 21
30.78876233893989
 31
0.0
  0
LINE
  5
711
330
2
100
AcDbEntity
  8
0
  6
CONTINUOUS
 62
     7
100
AcDbLine
 10
5.091325779773682
 20
30.78876233893989
 30
0.0
 11
4.791325779773727
 21
30.48876233893993
 31
0.0
  0
LINE
  5
712
330
2
100
AcDbEntity
  8
0
  6
CONTINUOUS
 62
     7
100
AcDbLine
 10
5.091325779773682
 20
30.78876233893989
 30
0.0
 11
5.091325779773682
 21
32.91876233894
 31
0.0
  0
LINE
  5
713
330
2
100
AcDbEntity
  8
0
  6
CONTINUOUS
 62
     7
100
AcDbLine
 10
4.791325779773727
 20
30.48876233893993
 30
0.0
 11
4.791325779773727
 21
32.91876233894
 31
0.0
  0
LINE
  5
714
330
2
100
AcDbEntity
  8
0
  6
CONTINUOUS
 62
     7
100
AcDbLine
 10
4.791325779773727
 20
33.21876233893995
 30
0.0
 11
5.091325779773682
 21
32.91876233894
 31
0.0
  0
LINE
  5
715
330
2
100
AcDbEntity
  8
0
  6
CONTINUOUS
 62
     7
100
AcDbLine
 10
6.891325779773636
 20
33.63619983373992
 30
0.0
 11
9.591325779773683
 21
31.49876233893993
 31
0.0
  0
LINE
  5
716
330
2
100
AcDbEntity
  8
0
  6
CONTINUOUS
 62
     7
100
AcDbLine
 10
4.791325779773727
 20
32.91876233894
 30
0.0
 11
4.941325779773592
 21
33.06876233893986
 31
0.0
  0
LINE
  5
717
330
2
100
AcDbEntity
  8
0
  6
CONTINUOUS
 62
     7
100
AcDbLine
 10
11.09132577977368
 20
32.09876233893995
 30
0.0
 11
11.11227824147374
 21
31.49876233893993
 31
0.0
  0
LINE
  5
718
330
2
100
AcDbEntity
  8
0
  6
CONTINUOUS
 62
     7
100
AcDbLine
 10
11.39132577977363
 20
32.09876233893995
 30
0.0
 11
11.09132577977368
 21
32.09876233893995
 31
0.0
  0
LINE
  5
719
330
2
100
AcDbEntity
  8
0
  6
CONTINUOUS
 62
     7
100
AcDbLine
 10
14.29132577977372
 20
30.99876233893993
 30
0.0
 11
11.39132577977363
 21
32.09876233893995
 31
0.0
  0
LINE
  5
71A
330
2
100
AcDbEntity
  8
0
  6
CONTINUOUS
 62
     7
100
AcDbLine
 10
24.69132577977369
 20
30.48876233893993
 30
0.0
 11
24.69132577977369
 21
24.12876233893992
 31
0.0
  0
LINE
  5
71B
330
2
100
AcDbEntity
  8
0
  6
CONTINUOUS
 62
     7
100
AcDbLine
 10
24.39132577977364
 20
30.48876233893993
 30
0.0
 11
24.39132577977364
 21
24.12876233893992
 31
0.0
  0
LINE
  5
71C
330
2
100
AcDbEntity
  8
0
  6
CONTINUOUS
 62
     7
100
AcDbLine
 10
24.69132577977369
 20
13.96876233893995
 30
0.0
 11
24.69132577977369
 21
18.20876233893996
 31
0.0
  0
LINE
  5
71D
330
2
100
AcDbEntity
  8
0
  6
CONTINUOUS
 62
     7
100
AcDbLine
 10
24.39132577977364
 20
17.37876233893992
 30
0.0
 11
24.39132577977364
 21
14.79876233893988
 31
0.0
  0
LINE
  5
71E
330
2
100
AcDbEntity
  8
0
  6
CONTINUOUS
 62
     7
100
AcDbLine
 10
24.69132577977369
 20
19.04876233893988
 30
0.0
 11
24.69132577977369
 21
23.28876233893989
 31
0.0
  0
LINE
  5
71F
330
2
100
AcDbEntity
  8
0
  6
CONTINUOUS
 62
     7
100
AcDbLine
 10
24.39132577977364
 20
23.28876233893989
 30
0.0
 11
24.39132577977364
 21
19.87876233893992
 31
0.0
  0
LINE
  5
720
330
2
100
AcDbEntity
  8
0
  6
CONTINUOUS
 62
     7
100
AcDbLine
 10
24.39132577977364
 20
30.48876233893993
 30
0.0
 11
24.54132577977373
 21
30.63876233893991
 31
0.0
  0
LINE
  5
721
330
2
100
AcDbEntity
  8
0
  6
CONTINUOUS
 62
     7
100
AcDbLine
 10
24.69132577977369
 20
30.48876233893993
 30
0.0
 11
24.39132577977364
 21
30.78876233893989
 31
0.0
  0
LINE
  5
722
330
2
100
AcDbEntity
  8
0
  6
CONTINUOUS
 62
     7
100
AcDbLine
 10
50.44466050953735
 20
32.91876233894
 30
0.0
 11
50.44466050953735
 21
4.33876233893985
 31
0.0
  0
LINE
  5
723
330
2
100
AcDbEntity
  8
0
  6
CONTINUOUS
 62
     7
100
AcDbLine
 10
44.8946605095374
 20
12.29876233893988
 30
0.0
 11
44.8946605095374
 21
14.79876233893988
 31
0.0
  0
LINE
  5
724
330
2
100
AcDbEntity
  8
0
  6
CONTINUOUS
 62
     7
100
AcDbLine
 10
50.14466050953739
 20
13.12876233893992
 30
0.0
 11
50.14466050953739
 21
12.00876233893992
 31
0.0
  0
LINE
  5
725
330
2
100
AcDbEntity
  8
0
  6
CONTINUOUS
 62
     7
100
AcDbLine
 10
43.29466050953737
 20
4.33876233893985
 30
0.0
 11
43.29466050953737
 21
32.91876233894
 31
0.0
  0
LINE
  5
726
330
2
100
AcDbEntity
  8
0
  6
CONTINUOUS
 62
     7
100
AcDbLine
 10
48.04466050953737
 20
1.238762338939942
 30
0.0
 11
48.04466050953737
 21
2.138762338939919
 31
0.0
  0
LINE
  5
727
330
2
100
AcDbEntity
  8
0
  6
CONTINUOUS
 62
     7
100
AcDbLine
 10
46.04466050953737
 20
1.238762338939942
 30
0.0
 11
46.04466050953737
 21
2.138762338939919
 31
0.0
  0
LINE
  5
728
330
2
100
AcDbEntity
  8
0
  6
CONTINUOUS
 62
     7
100
AcDbLine
 10
48.04466050953737
 20
1.238762338939942
 30
0.0
 11
46.04466050953737
 21
1.238762338939942
 31
0.0
  0
LINE
  5
729
330
2
100
AcDbEntity
  8
0
  6
CONTINUOUS
 62
     7
100
AcDbLine
 10
44.69466050953735
 20
4.958762338939969
 30
0.0
 11
44.69466050953735
 21
8.708762338939969
 31
0.0
  0
LINE
  5
72A
330
2
100
AcDbEntity
  8
0
  6
CONTINUOUS
 62
     7
100
AcDbLine
 10
45.19466050953734
 20
5.1587623389399
 30
0.0
 11
45.19466050953734
 21
8.708762338939969
 31
0.0
  0
LINE
  5
72B
330
2
100
AcDbEntity
  8
0
  6
CONTINUOUS
 62
     7
100
AcDbLine
 10
49.14466050953739
 20
5.1587623389399
 30
0.0
 11
49.14466050953739
 21
8.708762338939969
 31
0.0
  0
LINE
  5
72C
330
2
100
AcDbEntity
  8
0
  6
CONTINUOUS
 62
     7
100
AcDbLine
 10
49.64466050953739
 20
8.708762338939969
 30
0.0
 11
49.64466050953739
 21
4.958762338939969
 31
0.0
  0
LINE
  5
72D
330
2
100
AcDbEntity
  8
0
  6
CONTINUOUS
 62
     7
100
AcDbLine
 10
49.94466050953735
 20
8.708762338939969
 30
0.0
 11
49.94466050953735
 21
6.768762338939914
 31
0.0
  0
LINE
  5
72E
330
2
100
AcDbEntity
  8
0
  6
CONTINUOUS
 62
     7
100
AcDbLine
 10
50.14466050953739
 20
10.00876233893992
 30
0.0
 11
50.14466050953739
 21
6.768762338939914
 31
0.0
  0
LINE
  5
72F
330
2
100
AcDbEntity
  8
0
  6
CONTINUOUS
 62
     7
100
AcDbLine
 10
43.89466050953739
 20
12.29876233893988
 30
0.0
 11
43.89466050953739
 21
6.768762338939914
 31
0.0
  0
LINE
  5
730
330
2
100
AcDbEntity
  8
0
  6
CONTINUOUS
 62
     7
100
AcDbLine
 10
44.19466050953735
 20
12.29876233893988
 30
0.0
 11
44.19466050953735
 21
6.768762338939914
 31
0.0
  0
LINE
  5
731
330
2
100
AcDbEntity
  8
0
  6
CONTINUOUS
 62
     7
100
AcDbLine
 10
44.39466050953739
 20
6.768762338939914
 30
0.0
 11
44.39466050953739
 21
8.708762338939969
 31
0.0
  0
LINE
  5
732
330
2
100
AcDbEntity
  8
0
  6
CONTINUOUS
 62
     7
100
AcDbLine
 10
43.59466050953744
 20
4.33876233893985
 30
0.0
 11
45.54466050953737
 21
4.33876233893985
 31
0.0
  0
LINE
  5
733
330
2
100
AcDbEntity
  8
0
  6
CONTINUOUS
 62
     7
100
AcDbLine
 10
43.59466050953744
 20
4.038762338939896
 30
0.0
 11
45.54466050953737
 21
4.038762338939896
 31
0.0
  0
LINE
  5
734
330
2
100
AcDbEntity
  8
0
  6
CONTINUOUS
 62
     7
100
AcDbLine
 10
44.69466050953735
 20
4.958762338939969
 30
0.0
 11
45.84466050953744
 21
4.958762338939969
 31
0.0
  0
LINE
  5
735
330
2
100
AcDbEntity
  8
0
  6
CONTINUOUS
 62
     7
100
AcDbLine
 10
44.39466050953739
 20
6.768762338939914
 30
0.0
 11
44.69466050953735
 21
6.46876233893996
 31
0.0
  0
LINE
  5
736
330
2
100
AcDbEntity
  8
0
  6
CONTINUOUS
 62
     7
100
AcDbLine
 10
44.69466050953735
 20
6.46876233893996
 30
0.0
 11
43.59466050953744
 21
6.46876233893996
 31
0.0
  0
LINE
  5
737
330
2
100
AcDbEntity
  8
0
  6
CONTINUOUS
 62
     7
100
AcDbLine
 10
43.59466050953744
 20
4.33876233893985
 30
0.0
 11
43.59466050953744
 21
6.46876233893996
 31
0.0
  0
LINE
  5
738
330
2
100
AcDbEntity
  8
0
  6
CONTINUOUS
 62
     7
100
AcDbLine
 10
43.59466050953744
 20
4.33876233893985
 30
0.0
 11
43.44466050953735
 21
4.188762338939986
 31
0.0
  0
LINE
  5
739
330
2
100
AcDbEntity
  8
0
  6
CONTINUOUS
 62
     7
100
AcDbLine
 10
43.29466050953737
 20
4.33876233893985
 30
0.0
 11
43.59466050953744
 21
4.038762338939896
 31
0.0
  0
LINE
  5
73A
330
2
100
AcDbEntity
  8
0
  6
CONTINUOUS
 62
     7
100
AcDbLine
 10
44.04466050953737
 20
6.618762338939937
 30
0.0
 11
44.19466050953735
 21
6.768762338939914
 31
0.0
  0
LINE
  5
73B
330
2
100
AcDbEntity
  8
0
  6
CONTINUOUS
 62
     7
100
AcDbLine
 10
44.19466050953735
 20
6.46876233893996
 30
0.0
 11
43.89466050953739
 21
6.768762338939914
 31
0.0
  0
LINE
  5
73C
330
2
100
AcDbEntity
  8
0
  6
CONTINUOUS
 62
     7
100
AcDbLine
 10
43.29466050953737
 20
6.768762338939914
 30
0.0
 11
43.59466050953744
 21
6.46876233893996
 31
0.0
  0
LINE
  5
73D
330
2
100
AcDbEntity
  8
0
  6
CONTINUOUS
 62
     7
100
AcDbLine
 10
44.19466050953735
 20
6.768762338939914
 30
0.0
 11
44.39466050953739
 21
6.768762338939914
 31
0.0
  0
LINE
  5
73E
330
2
100
AcDbEntity
  8
0
  6
CONTINUOUS
 62
     7
100
AcDbLine
 10
50.14466050953739
 20
6.768762338939914
 30
0.0
 11
50.29466050953737
 21
6.618762338939937
 31
0.0
  0
LINE
  5
73F
330
2
100
AcDbEntity
  8
0
  6
CONTINUOUS
 62
     7
100
AcDbLine
 10
50.14466050953739
 20
4.33876233893985
 30
0.0
 11
50.29466050953737
 21
4.188762338939986
 31
0.0
  0
LINE
  5
740
330
2
100
AcDbEntity
  8
0
  6
CONTINUOUS
 62
     7
100
AcDbLine
 10
50.14466050953739
 20
6.46876233893996
 30
0.0
 11
50.44466050953735
 21
6.768762338939914
 31
0.0
  0
LINE
  5
741
330
2
100
AcDbEntity
  8
0
  6
CONTINUOUS
 62
     7
100
AcDbLine
 10
50.14466050953739
 20
4.038762338939896
 30
0.0
 11
50.44466050953735
 21
4.33876233893985
 31
0.0
  0
LINE
  5
742
330
2
100
AcDbEntity
  8
0
  6
CONTINUOUS
 62
     7
100
AcDbLine
 10
46.34466050953744
 20
2.738762338939941
 30
0.0
 11
46.34466050953744
 21
6.258762338939922
 31
0.0
  0
LINE
  5
743
330
2
100
AcDbEntity
  8
0
  6
CONTINUOUS
 62
     7
100
AcDbLine
 10
47.74466050953741
 20
2.738762338939941
 30
0.0
 11
47.74466050953741
 21
6.258762338939922
 31
0.0
  0
LINE
  5
744
330
2
100
AcDbEntity
  8
0
  6
CONTINUOUS
 62
     7
100
AcDbLine
 10
48.24466050953741
 20
4.958762338939969
 30
0.0
 11
48.24466050953741
 21
4.33876233893985
 31
0.0
  0
LINE
  5
745
330
2
100
AcDbEntity
  8
0
  6
CONTINUOUS
 62
     7
100
AcDbLine
 10
48.54466050953737
 20
4.958762338939969
 30
0.0
 11
48.54466050953737
 21
4.33876233893985
 31
0.0
  0
LINE
  5
746
330
2
100
AcDbEntity
  8
0
  6
CONTINUOUS
 62
     7
100
AcDbLine
 10
50.14466050953739
 20
6.46876233893996
 30
0.0
 11
50.14466050953739
 21
4.33876233893985
 31
0.0
  0
LINE
  5
747
330
2
100
AcDbEntity
  8
0
  6
CONTINUOUS
 62
     7
100
AcDbLine
 10
46.34466050953744
 20
3.621324844139925
 30
0.0
 11
47.74466050953741
 21
3.621324844139925
 31
0.0
  0
LINE
  5
748
330
2
100
AcDbEntity
  8
0
  6
CONTINUOUS
 62
     7
100
AcDbLine
 10
47.74466050953741
 20
2.738762338939941
 30
0.0
 11
48.04466050953737
 21
2.138762338939919
 31
0.0
  0
LINE
  5
749
330
2
100
AcDbEntity
  8
0
  6
CONTINUOUS
 62
     7
100
AcDbLine
 10
48.54466050953737
 20
4.038762338939896
 30
0.0
 11
48.24466050953741
 21
4.33876233893985
 31
0.0
  0
LINE
  5
74A
330
2
100
AcDbEntity
  8
0
  6
CONTINUOUS
 62
     7
100
AcDbLine
 10
48.39466050953739
 20
4.188762338939986
 30
0.0
 11
48.54466050953737
 21
4.33876233893985
 31
0.0
  0
LINE
  5
74B
330
2
100
AcDbEntity
  8
0
  6
CONTINUOUS
 62
     7
100
AcDbLine
 10
48.54466050953737
 20
4.33876233893985
 30
0.0
 11
50.14466050953739
 21
4.33876233893985
 31
0.0
  0
LINE
  5
74C
330
2
100
AcDbEntity
  8
0
  6
CONTINUOUS
 62
     7
100
AcDbLine
 10
48.54466050953737
 20
4.038762338939896
 30
0.0
 11
50.14466050953739
 21
4.038762338939896
 31
0.0
  0
LINE
  5
74D
330
2
100
AcDbEntity
  8
0
  6
CONTINUOUS
 62
     7
100
AcDbLine
 10
47.74466050953741
 20
5.758762338939922
 30
0.0
 11
46.34466050953744
 21
5.758762338939922
 31
0.0
  0
LINE
  5
74E
330
2
100
AcDbEntity
  8
0
  6
CONTINUOUS
 62
     7
100
AcDbLine
 10
49.14466050953739
 20
5.1587623389399
 30
0.0
 11
47.74466050953741
 21
5.1587623389399
 31
0.0
  0
LINE
  5
74F
330
2
100
AcDbEntity
  8
0
  6
CONTINUOUS
 62
     7
100
AcDbLine
 10
48.24466050953741
 20
4.958762338939969
 30
0.0
 11
49.64466050953739
 21
4.958762338939969
 31
0.0
  0
LINE
  5
750
330
2
100
AcDbEntity
  8
0
  6
CONTINUOUS
 62
     7
100
AcDbLine
 10
49.64466050953739
 20
6.46876233893996
 30
0.0
 11
49.94466050953735
 21
6.768762338939914
 31
0.0
  0
LINE
  5
751
330
2
100
AcDbEntity
  8
0
  6
CONTINUOUS
 62
     7
100
AcDbLine
 10
49.94466050953735
 20
6.768762338939914
 30
0.0
 11
50.14466050953739
 21
6.768762338939914
 31
0.0
  0
LINE
  5
752
330
2
100
AcDbEntity
  8
0
  6
CONTINUOUS
 62
     7
100
AcDbLine
 10
49.64466050953739
 20
6.46876233893996
 30
0.0
 11
50.14466050953739
 21
6.46876233893996
 31
0.0
  0
LINE
  5
753
330
2
100
AcDbEntity
  8
0
  6
CONTINUOUS
 62
     7
100
AcDbLine
 10
45.54466050953737
 20
4.33876233893985
 30
0.0
 11
45.54466050953737
 21
4.958762338939969
 31
0.0
  0
LINE
  5
754
330
2
100
AcDbEntity
  8
0
  6
CONTINUOUS
 62
     7
100
AcDbLine
 10
45.84466050953744
 20
4.33876233893985
 30
0.0
 11
45.84466050953744
 21
4.958762338939969
 31
0.0
  0
LINE
  5
755
330
2
100
AcDbEntity
  8
0
  6
CONTINUOUS
 62
     7
100
AcDbLine
 10
45.84466050953744
 20
4.33876233893985
 30
0.0
 11
45.54466050953737
 21
4.038762338939896
 31
0.0
  0
LINE
  5
756
330
2
100
AcDbEntity
  8
0
  6
CONTINUOUS
 62
     7
100
AcDbLine
 10
45.54466050953737
 20
4.33876233893985
 30
0.0
 11
45.69466050953734
 21
4.188762338939986
 31
0.0
  0
LINE
  5
757
330
2
100
AcDbEntity
  8
0
  6
CONTINUOUS
 62
     7
100
AcDbLine
 10
46.04466050953737
 20
1.72284933918987
 30
0.0
 11
48.04466050953737
 21
1.72284933918987
 31
0.0
  0
LINE
  5
758
330
2
100
AcDbEntity
  8
0
  6
CONTINUOUS
 62
     7
100
AcDbLine
 10
46.04466050953737
 20
2.138762338939919
 30
0.0
 11
46.34466050953744
 21
2.738762338939941
 31
0.0
  0
LINE
  5
759
330
2
100
AcDbEntity
  8
0
  6
CONTINUOUS
 62
     7
100
AcDbLine
 10
49.14466050953739
 20
6.46876233893996
 30
0.0
 11
45.19466050953734
 21
6.46876233893996
 31
0.0
  0
LINE
  5
75A
330
2
100
AcDbEntity
  8
0
  6
CONTINUOUS
 62
     7
100
AcDbLine
 10
49.14466050953739
 20
6.258762338939922
 30
0.0
 11
45.19466050953734
 21
6.258762338939922
 31
0.0
  0
LINE
  5
75B
330
2
100
AcDbEntity
  8
0
  6
CONTINUOUS
 62
     7
100
AcDbLine
 10
46.34466050953744
 20
5.1587623389399
 30
0.0
 11
45.19466050953734
 21
5.1587623389399
 31
0.0
  0
LINE
  5
75C
330
2
100
AcDbEntity
  8
0
  6
CONTINUOUS
 62
     7
100
AcDbLine
 10
44.39466050953739
 20
8.708762338939969
 30
0.0
 11
49.94466050953735
 21
8.708762338939969
 31
0.0
  0
LINE
  5
75D
330
2
100
AcDbEntity
  8
0
  6
CONTINUOUS
 62
     7
100
AcDbLine
 10
44.69466050953735
 20
10.33376233893996
 30
0.0
 11
46.84466050953743
 21
10.33376233893996
 31
0.0
  0
LINE
  5
75E
330
2
100
AcDbEntity
  8
0
  6
CONTINUOUS
 62
     7
100
AcDbLine
 10
46.84466050953743
 20
11.68376233893987
 30
0.0
 11
44.69466050953735
 21
11.68376233893987
 31
0.0
  0
LINE
  5
75F
330
2
100
AcDbEntity
  8
0
  6
CONTINUOUS
 62
     7
100
AcDbLine
 10
43.89466050953739
 20
12.29876233893988
 30
0.0
 11
44.8946605095374
 21
12.29876233893988
 31
0.0
  0
LINE
  5
760
330
2
100
AcDbEntity
  8
0
  6
CONTINUOUS
 62
     7
100
AcDbLine
 10
44.69466050953735
 20
11.68376233893987
 30
0.0
 11
44.69466050953735
 21
10.33376233893996
 31
0.0
  0
TEXT
  5
761
330
2
100
AcDbEntity
  8
TEXT
100
AcDbText
 10
55.21475706275008
 20
10.42871150390046
 30
0.0
 40
1.5
  1
4
100
AcDbText
  0
LINE
  5
762
330
2
100
AcDbEntity
  8
0
  6
CONTINUOUS
 62
     7
100
AcDbLine
 10
50.44466050953735
 20
12.00876233893992
 30
0.0
 11
49.64466050953739
 21
12.00876233893992
 31
0.0
  0
LINE
  5
763
330
2
100
AcDbEntity
  8
0
  6
CONTINUOUS
 62
     7
100
AcDbLine
 10
50.44466050953735
 20
10.00876233893992
 30
0.0
 11
49.64466050953739
 21
10.00876233893992
 31
0.0
  0
LINE
  5
764
330
2
100
AcDbEntity
  8
0
  6
CONTINUOUS
 62
     7
100
AcDbLine
 10
48.44466050953735
 20
12.78376233893989
 30
0.0
 11
48.44466050953735
 21
9.233762338939946
 31
0.0
  0
LINE
  5
765
330
2
100
AcDbEntity
  8
0
  6
CONTINUOUS
 62
     7
100
AcDbLine
 10
47.84466050953744
 20
12.18376233893987
 30
0.0
 11
48.44466050953735
 21
12.78376233893989
 31
0.0
  0
LINE
  5
766
330
2
100
AcDbEntity
  8
0
  6
CONTINUOUS
 62
     7
100
AcDbLine
 10
46.84466050953743
 20
12.18376233893987
 30
0.0
 11
47.84466050953744
 21
12.18376233893987
 31
0.0
  0
LINE
  5
767
330
2
100
AcDbEntity
  8
0
  6
CONTINUOUS
 62
     7
100
AcDbLine
 10
47.84466050953744
 20
9.833762338939969
 30
0.0
 11
46.84466050953743
 21
9.833762338939969
 31
0.0
  0
LINE
  5
768
330
2
100
AcDbEntity
  8
0
  6
CONTINUOUS
 62
     7
100
AcDbLine
 10
47.84466050953744
 20
12.18376233893987
 30
0.0
 11
47.84466050953744
 21
9.833762338939969
 31
0.0
  0
LINE
  5
769
330
2
100
AcDbEntity
  8
0
  6
CONTINUOUS
 62
     7
100
AcDbLine
 10
49.64466050953739
 20
12.00876233893992
 30
0.0
 11
49.64466050953739
 21
10.00876233893992
 31
0.0
  0
LINE
  5
76A
330
2
100
AcDbEntity
  8
0
  6
CONTINUOUS
 62
     7
100
AcDbLine
 10
47.84466050953744
 20
9.833762338939969
 30
0.0
 11
48.44466050953735
 21
9.233762338939946
 31
0.0
  0
LINE
  5
76B
330
2
100
AcDbEntity
  8
0
  6
CONTINUOUS
 62
     7
100
AcDbLine
 10
46.84466050953743
 20
9.833762338939969
 30
0.0
 11
46.84466050953743
 21
10.33376233893996
 31
0.0
  0
LINE
  5
76C
330
2
100
AcDbEntity
  8
0
  6
CONTINUOUS
 62
     7
100
AcDbLine
 10
46.84466050953743
 20
11.68376233893987
 30
0.0
 11
46.84466050953743
 21
12.18376233893987
 31
0.0
  0
LINE
  5
76D
330
2
100
AcDbEntity
  8
0
  6
CONTINUOUS
 62
     7
100
AcDbLine
 10
46.24466050953741
 20
11.68376233893987
 30
0.0
 11
46.24466050953741
 21
12.78376233893989
 31
0.0
  0
LINE
  5
76E
330
2
100
AcDbEntity
  8
0
  6
CONTINUOUS
 62
     7
100
AcDbLine
 10
46.24466050953741
 20
9.233762338939946
 30
0.0
 11
46.24466050953741
 21
10.33376233893996
 31
0.0
  0
LINE
  5
76F
330
2
100
AcDbEntity
  8
0
  6
CONTINUOUS
 62
     7
100
AcDbLine
 10
49.14466050953739
 20
7.968762338939961
 30
0.0
 11
45.19466050953734
 21
7.968762338939961
 31
0.0
  0
LINE
  5
770
330
2
100
AcDbEntity
  8
0
  6
CONTINUOUS
 62
     7
100
AcDbLine
 10
46.84466050953743
 20
12.18376233893987
 30
0.0
 11
46.24466050953741
 21
12.78376233893989
 31
0.0
  0
LINE
  5
771
330
2
100
AcDbEntity
  8
0
  6
CONTINUOUS
 62
     7
100
AcDbLine
 10
48.44466050953735
 20
9.233762338939946
 30
0.0
 11
46.24466050953741
 21
9.233762338939946
 31
0.0
  0
LINE
  5
772
330
2
100
AcDbEntity
  8
0
  6
CONTINUOUS
 62
     7
100
AcDbLine
 10
46.84466050953743
 20
9.833762338939969
 30
0.0
 11
46.24466050953741
 21
9.233762338939946
 31
0.0
  0
LINE
  5
773
330
2
100
AcDbEntity
  8
0
  6
CONTINUOUS
 62
     7
100
AcDbLine
 10
46.24466050953741
 20
12.78376233893989
 30
0.0
 11
48.44466050953735
 21
12.78376233893989
 31
0.0
  0
LINE
  5
774
330
2
100
AcDbEntity
  8
0
  6
CONTINUOUS
 62
     7
100
AcDbLine
 10
47.84466050953744
 20
25.07376233893997
 30
0.0
 11
48.44466050953735
 21
24.47376233893995
 31
0.0
  0
LINE
  5
775
330
2
100
AcDbEntity
  8
0
  6
CONTINUOUS
 62
     7
100
AcDbLine
 10
46.84466050953743
 20
25.07376233893997
 30
0.0
 11
46.24466050953741
 21
24.47376233893995
 31
0.0
  0
LINE
  5
776
330
2
100
AcDbEntity
  8
0
  6
CONTINUOUS
 62
     7
100
AcDbLine
 10
46.24466050953741
 20
24.47376233893995
 30
0.0
 11
46.24466050953741
 21
25.57376233893997
 31
0.0
  0
LINE
  5
777
330
2
100
AcDbEntity
  8
0
  6
CONTINUOUS
 62
     7
100
AcDbLine
 10
48.44466050953735
 20
28.02376233893991
 30
0.0
 11
48.44466050953735
 21
24.47376233893995
 31
0.0
  0
LINE
  5
778
330
2
100
AcDbEntity
  8
0
  6
CONTINUOUS
 62
     7
100
AcDbLine
 10
50.14466050953739
 20
30.48876233893993
 30
0.0
 11
50.14466050953739
 21
24.12876233893992
 31
0.0
  0
LINE
  5
779
330
2
100
AcDbEntity
  8
0
  6
CONTINUOUS
 62
     7
100
AcDbLine
 10
43.89466050953739
 20
30.48876233893993
 30
0.0
 11
43.89466050953739
 21
24.12876233893992
 31
0.0
  0
LINE
  5
77A
330
2
100
AcDbEntity
  8
0
  6
CONTINUOUS
 62
     7
100
AcDbLine
 10
44.19466050953735
 20
30.48876233893993
 30
0.0
 11
44.19466050953735
 21
24.12876233893992
 31
0.0
  0
LINE
  5
77B
330
2
100
AcDbEntity
  8
0
  6
CONTINUOUS
 62
     7
100
AcDbLine
 10
48.74466050953742
 20
18.20876233893996
 30
0.0
 11
48.74466050953742
 21
19.04876233893988
 31
0.0
  0
LINE
  5
77C
330
2
100
AcDbEntity
  8
0
  6
CONTINUOUS
 62
     7
100
AcDbLine
 10
49.44466050953735
 20
18.20876233893996
 30
0.0
 11
49.44466050953735
 21
19.04876233893988
 31
0.0
  0
LINE
  5
77D
330
2
100
AcDbEntity
  8
0
  6
CONTINUOUS
 62
     7
100
AcDbLine
 10
44.8946605095374
 20
17.37876233893992
 30
0.0
 11
44.8946605095374
 21
19.87876233893992
 31
0.0
  0
LINE
  5
77E
330
2
100
AcDbEntity
  8
0
  6
CONTINUOUS
 62
     7
100
AcDbLine
 10
45.59466050953743
 20
18.20876233893996
 30
0.0
 11
45.59466050953743
 21
19.04876233893988
 31
0.0
  0
LINE
  5
77F
330
2
100
AcDbEntity
  8
0
  6
CONTINUOUS
 62
     7
100
AcDbLine
 10
50.44466050953735
 20
13.96876233893995
 30
0.0
 11
44.8946605095374
 21
13.96876233893995
 31
0.0
  0
LINE
  5
780
330
2
100
AcDbEntity
  8
0
  6
CONTINUOUS
 62
     7
100
AcDbLine
 10
50.44466050953735
 20
13.12876233893992
 30
0.0
 11
44.8946605095374
 21
13.12876233893992
 31
0.0
  0
LINE
  5
781
330
2
100
AcDbEntity
  8
0
  6
CONTINUOUS
 62
     7
100
AcDbLine
 10
44.69466050953735
 20
15.41376233893989
 30
0.0
 11
46.84466050953743
 21
15.41376233893989
 31
0.0
  0
LINE
  5
782
330
2
100
AcDbEntity
  8
0
  6
CONTINUOUS
 62
     7
100
AcDbLine
 10
50.44466050953735
 20
18.20876233893996
 30
0.0
 11
44.8946605095374
 21
18.20876233893996
 31
0.0
  0
LINE
  5
783
330
2
100
AcDbEntity
  8
0
  6
CONTINUOUS
 62
     7
100
AcDbLine
 10
46.84466050953743
 20
16.76376233893991
 30
0.0
 11
44.69466050953735
 21
16.76376233893991
 31
0.0
  0
LINE
  5
784
330
2
100
AcDbEntity
  8
0
  6
CONTINUOUS
 62
     7
100
AcDbLine
 10
43.89466050953739
 20
17.37876233893992
 30
0.0
 11
44.8946605095374
 21
17.37876233893992
 31
0.0
  0
LINE
  5
785
330
2
100
AcDbEntity
  8
0
  6
CONTINUOUS
 62
     7
100
AcDbLine
 10
43.89466050953739
 20
14.79876233893988
 30
0.0
 11
44.8946605095374
 21
14.79876233893988
 31
0.0
  0
LINE
  5
786
330
2
100
AcDbEntity
  8
0
  6
CONTINUOUS
 62
     7
100
AcDbLine
 10
44.69466050953735
 20
16.76376233893991
 30
0.0
 11
44.69466050953735
 21
15.41376233893989
 31
0.0
  0
LINE
  5
787
330
2
100
AcDbEntity
  8
0
  6
CONTINUOUS
 62
     7
100
AcDbLine
 10
43.89466050953739
 20
17.37876233893992
 30
0.0
 11
43.89466050953739
 21
14.79876233893988
 31
0.0
  0
LINE
  5
788
330
2
100
AcDbEntity
  8
0
  6
CONTINUOUS
 62
     7
100
AcDbLine
 10
44.19466050953735
 20
17.37876233893992
 30
0.0
 11
44.19466050953735
 21
14.79876233893988
 31
0.0
  0
TEXT
  5
789
330
2
100
AcDbEntity
  8
TEXT
100
AcDbText
 10
55.21475706275008
 20
15.5087115039005
 30
0.0
 40
1.5
  1
3
100
AcDbText
  0
LINE
  5
78A
330
2
100
AcDbEntity
  8
0
  6
CONTINUOUS
 62
     7
100
AcDbLine
 10
47.84466050953744
 20
17.26376233893991
 30
0.0
 11
47.84466050953744
 21
14.91376233893989
 31
0.0
  0
LINE
  5
78B
330
2
100
AcDbEntity
  8
0
  6
CONTINUOUS
 62
     7
100
AcDbLine
 10
48.44466050953735
 20
17.86376233893993
 30
0.0
 11
48.44466050953735
 21
14.31376233893998
 31
0.0
  0
LINE
  5
78C
330
2
100
AcDbEntity
  8
0
  6
CONTINUOUS
 62
     7
100
AcDbLine
 10
49.64466050953739
 20
17.08876233893984
 30
0.0
 11
49.64466050953739
 21
15.08876233893984
 31
0.0
  0
LINE
  5
78D
330
2
100
AcDbEntity
  8
0
  6
CONTINUOUS
 62
     7
100
AcDbLine
 10
50.44466050953735
 20
15.08876233893984
 30
0.0
 11
49.64466050953739
 21
15.08876233893984
 31
0.0
  0
LINE
  5
78E
330
2
100
AcDbEntity
  8
0
  6
CONTINUOUS
 62
     7
100
AcDbLine
 10
47.84466050953744
 20
14.91376233893989
 30
0.0
 11
46.84466050953743
 21
14.91376233893989
 31
0.0
  0
LINE
  5
78F
330
2
100
AcDbEntity
  8
0
  6
CONTINUOUS
 62
     7
100
AcDbLine
 10
47.84466050953744
 20
14.91376233893989
 30
0.0
 11
48.44466050953735
 21
14.31376233893998
 31
0.0
  0
LINE
  5
790
330
2
100
AcDbEntity
  8
0
  6
CONTINUOUS
 62
     7
100
AcDbLine
 10
50.14466050953739
 20
15.08876233893984
 30
0.0
 11
50.14466050953739
 21
13.96876233893995
 31
0.0
  0
LINE
  5
791
330
2
100
AcDbEntity
  8
0
  6
CONTINUOUS
 62
     7
100
AcDbLine
 10
48.74466050953742
 20
13.12876233893992
 30
0.0
 11
48.74466050953742
 21
13.96876233893995
 31
0.0
  0
LINE
  5
792
330
2
100
AcDbEntity
  8
0
  6
CONTINUOUS
 62
     7
100
AcDbLine
 10
49.44466050953735
 20
13.12876233893992
 30
0.0
 11
49.44466050953735
 21
13.96876233893995
 31
0.0
  0
LINE
  5
793
330
2
100
AcDbEntity
  8
0
  6
CONTINUOUS
 62
     7
100
AcDbLine
 10
46.84466050953743
 20
14.91376233893989
 30
0.0
 11
46.84466050953743
 21
15.41376233893989
 31
0.0
  0
LINE
  5
794
330
2
100
AcDbEntity
  8
0
  6
CONTINUOUS
 62
     7
100
AcDbLine
 10
50.44466050953735
 20
17.08876233893984
 30
0.0
 11
49.64466050953739
 21
17.08876233893984
 31
0.0
  0
LINE
  5
795
330
2
100
AcDbEntity
  8
0
  6
CONTINUOUS
 62
     7
100
AcDbLine
 10
46.84466050953743
 20
17.26376233893991
 30
0.0
 11
47.84466050953744
 21
17.26376233893991
 31
0.0
  0
LINE
  5
796
330
2
100
AcDbEntity
  8
0
  6
CONTINUOUS
 62
     7
100
AcDbLine
 10
47.84466050953744
 20
17.26376233893991
 30
0.0
 11
48.44466050953735
 21
17.86376233893993
 31
0.0
  0
LINE
  5
797
330
2
100
AcDbEntity
  8
0
  6
CONTINUOUS
 62
     7
100
AcDbLine
 10
50.14466050953739
 20
18.20876233893996
 30
0.0
 11
50.14466050953739
 21
17.08876233893984
 31
0.0
  0
LINE
  5
798
330
2
100
AcDbEntity
  8
0
  6
CONTINUOUS
 62
     7
100
AcDbLine
 10
46.84466050953743
 20
16.76376233893991
 30
0.0
 11
46.84466050953743
 21
17.26376233893991
 31
0.0
  0
LINE
  5
799
330
2
100
AcDbEntity
  8
0
  6
CONTINUOUS
 62
     7
100
AcDbLine
 10
46.24466050953741
 20
14.31376233893998
 30
0.0
 11
46.24466050953741
 21
15.41376233893989
 31
0.0
  0
LINE
  5
79A
330
2
100
AcDbEntity
  8
0
  6
CONTINUOUS
 62
     7
100
AcDbLine
 10
45.59466050953743
 20
13.12876233893992
 30
0.0
 11
45.59466050953743
 21
13.96876233893995
 31
0.0
  0
LINE
  5
79B
330
2
100
AcDbEntity
  8
0
  6
CONTINUOUS
 62
     7
100
AcDbLine
 10
46.24466050953741
 20
16.76376233893991
 30
0.0
 11
46.24466050953741
 21
17.86376233893993
 31
0.0
  0
LINE
  5
79C
330
2
100
AcDbEntity
  8
0
  6
CONTINUOUS
 62
     7
100
AcDbLine
 10
48.44466050953735
 20
14.31376233893998
 30
0.0
 11
46.24466050953741
 21
14.31376233893998
 31
0.0
  0
LINE
  5
79D
330
2
100
AcDbEntity
  8
0
  6
CONTINUOUS
 62
     7
100
AcDbLine
 10
46.84466050953743
 20
14.91376233893989
 30
0.0
 11
46.24466050953741
 21
14.31376233893998
 31
0.0
  0
LINE
  5
79E
330
2
100
AcDbEntity
  8
0
  6
CONTINUOUS
 62
     7
100
AcDbLine
 10
46.24466050953741
 20
17.86376233893993
 30
0.0
 11
48.44466050953735
 21
17.86376233893993
 31
0.0
  0
LINE
  5
79F
330
2
100
AcDbEntity
  8
0
  6
CONTINUOUS
 62
     7
100
AcDbLine
 10
46.84466050953743
 20
17.26376233893991
 30
0.0
 11
46.24466050953741
 21
17.86376233893993
 31
0.0
  0
LINE
  5
7A0
330
2
100
AcDbEntity
  8
0
  6
CONTINUOUS
 62
     7
100
AcDbLine
 10
50.44466050953735
 20
24.12876233893992
 30
0.0
 11
43.89466050953739
 21
24.12876233893992
 31
0.0
  0
LINE
  5
7A1
330
2
100
AcDbEntity
  8
0
  6
CONTINUOUS
 62
     7
100
AcDbLine
 10
50.44466050953735
 20
23.28876233893989
 30
0.0
 11
43.89466050953739
 21
23.28876233893989
 31
0.0
  0
LINE
  5
7A2
330
2
100
AcDbEntity
  8
0
  6
CONTINUOUS
 62
     7
100
AcDbLine
 10
50.44466050953735
 20
19.04876233893988
 30
0.0
 11
44.8946605095374
 21
19.04876233893988
 31
0.0
  0
LINE
  5
7A3
330
2
100
AcDbEntity
  8
0
  6
CONTINUOUS
 62
     7
100
AcDbLine
 10
44.69466050953735
 20
20.49376233893993
 30
0.0
 11
46.84466050953743
 21
20.49376233893993
 31
0.0
  0
LINE
  5
7A4
330
2
100
AcDbEntity
  8
0
  6
CONTINUOUS
 62
     7
100
AcDbLine
 10
46.84466050953743
 20
21.84376233893995
 30
0.0
 11
44.69466050953735
 21
21.84376233893995
 31
0.0
  0
LINE
  5
7A5
330
2
100
AcDbEntity
  8
0
  6
CONTINUOUS
 62
     7
100
AcDbLine
 10
43.89466050953739
 20
19.87876233893992
 30
0.0
 11
44.8946605095374
 21
19.87876233893992
 31
0.0
  0
LINE
  5
7A6
330
2
100
AcDbEntity
  8
0
  6
CONTINUOUS
 62
     7
100
AcDbLine
 10
44.69466050953735
 20
21.84376233893995
 30
0.0
 11
44.69466050953735
 21
20.49376233893993
 31
0.0
  0
LINE
  5
7A7
330
2
100
AcDbEntity
  8
0
  6
CONTINUOUS
 62
     7
100
AcDbLine
 10
44.8946605095374
 20
23.28876233893989
 30
0.0
 11
44.8946605095374
 21
24.12876233893992
 31
0.0
  0
LINE
  5
7A8
330
2
100
AcDbEntity
  8
0
  6
CONTINUOUS
 62
     7
100
AcDbLine
 10
43.89466050953739
 20
23.28876233893989
 30
0.0
 11
43.89466050953739
 21
19.87876233893992
 31
0.0
  0
LINE
  5
7A9
330
2
100
AcDbEntity
  8
0
  6
CONTINUOUS
 62
     7
100
AcDbLine
 10
44.19466050953735
 20
23.28876233893989
 30
0.0
 11
44.19466050953735
 21
19.87876233893992
 31
0.0
  0
TEXT
  5
7AA
330
2
100
AcDbEntity
  8
TEXT
100
AcDbText
 10
55.21475706275008
 20
20.58871150390042
 30
0.0
 40
1.5
  1
2
100
AcDbText
  0
LINE
  5
7AB
330
2
100
AcDbEntity
  8
0
  6
CONTINUOUS
 62
     7
100
AcDbLine
 10
50.44466050953735
 20
22.16876233894
 30
0.0
 11
49.64466050953739
 21
22.16876233894
 31
0.0
  0
LINE
  5
7AC
330
2
100
AcDbEntity
  8
0
  6
CONTINUOUS
 62
     7
100
AcDbLine
 10
50.44466050953735
 20
20.16876233894
 30
0.0
 11
49.64466050953739
 21
20.16876233894
 31
0.0
  0
LINE
  5
7AD
330
2
100
AcDbEntity
  8
0
  6
CONTINUOUS
 62
     7
100
AcDbLine
 10
47.84466050953744
 20
22.34376233893995
 30
0.0
 11
47.84466050953744
 21
19.99376233893993
 31
0.0
  0
LINE
  5
7AE
330
2
100
AcDbEntity
  8
0
  6
CONTINUOUS
 62
     7
100
AcDbLine
 10
48.44466050953735
 20
22.94376233893986
 30
0.0
 11
48.44466050953735
 21
19.39376233893991
 31
0.0
  0
LINE
  5
7AF
330
2
100
AcDbEntity
  8
0
  6
CONTINUOUS
 62
     7
100
AcDbLine
 10
49.64466050953739
 20
22.16876233894
 30
0.0
 11
49.64466050953739
 21
20.16876233894
 31
0.0
  0
LINE
  5
7B0
330
2
100
AcDbEntity
  8
0
  6
CONTINUOUS
 62
     7
100
AcDbLine
 10
47.84466050953744
 20
19.99376233893993
 30
0.0
 11
46.84466050953743
 21
19.99376233893993
 31
0.0
  0
LINE
  5
7B1
330
2
100
AcDbEntity
  8
0
  6
CONTINUOUS
 62
     7
100
AcDbLine
 10
47.84466050953744
 20
19.99376233893993
 30
0.0
 11
48.44466050953735
 21
19.39376233893991
 31
0.0
  0
LINE
  5
7B2
330
2
100
AcDbEntity
  8
0
  6
CONTINUOUS
 62
     7
100
AcDbLine
 10
50.14466050953739
 20
20.16876233894
 30
0.0
 11
50.14466050953739
 21
19.04876233893988
 31
0.0
  0
LINE
  5
7B3
330
2
100
AcDbEntity
  8
0
  6
CONTINUOUS
 62
     7
100
AcDbLine
 10
46.84466050953743
 20
19.99376233893993
 30
0.0
 11
46.84466050953743
 21
20.49376233893993
 31
0.0
  0
LINE
  5
7B4
330
2
100
AcDbEntity
  8
0
  6
CONTINUOUS
 62
     7
100
AcDbLine
 10
46.84466050953743
 20
22.34376233893995
 30
0.0
 11
47.84466050953744
 21
22.34376233893995
 31
0.0
  0
LINE
  5
7B5
330
2
100
AcDbEntity
  8
0
  6
CONTINUOUS
 62
     7
100
AcDbLine
 10
47.84466050953744
 20
22.34376233893995
 30
0.0
 11
48.44466050953735
 21
22.94376233893986
 31
0.0
  0
LINE
  5
7B6
330
2
100
AcDbEntity
  8
0
  6
CONTINUOUS
 62
     7
100
AcDbLine
 10
50.14466050953739
 20
23.28876233893989
 30
0.0
 11
50.14466050953739
 21
22.16876233894
 31
0.0
  0
LINE
  5
7B7
330
2
100
AcDbEntity
  8
0
  6
CONTINUOUS
 62
     7
100
AcDbLine
 10
48.74466050953742
 20
23.28876233893989
 30
0.0
 11
48.74466050953742
 21
24.12876233893992
 31
0.0
  0
LINE
  5
7B8
330
2
100
AcDbEntity
  8
0
  6
CONTINUOUS
 62
     7
100
AcDbLine
 10
49.44466050953735
 20
23.28876233893989
 30
0.0
 11
49.44466050953735
 21
24.12876233893992
 31
0.0
  0
LINE
  5
7B9
330
2
100
AcDbEntity
  8
0
  6
CONTINUOUS
 62
     7
100
AcDbLine
 10
46.84466050953743
 20
21.84376233893995
 30
0.0
 11
46.84466050953743
 21
22.34376233893995
 31
0.0
  0
LINE
  5
7BA
330
2
100
AcDbEntity
  8
0
  6
CONTINUOUS
 62
     7
100
AcDbLine
 10
46.24466050953741
 20
19.39376233893991
 30
0.0
 11
46.24466050953741
 21
20.49376233893993
 31
0.0
  0
LINE
  5
7BB
330
2
100
AcDbEntity
  8
0
  6
CONTINUOUS
 62
     7
100
AcDbLine
 10
46.24466050953741
 20
21.84376233893995
 30
0.0
 11
46.24466050953741
 21
22.94376233893986
 31
0.0
  0
LINE
  5
7BC
330
2
100
AcDbEntity
  8
0
  6
CONTINUOUS
 62
     7
100
AcDbLine
 10
45.59466050953743
 20
23.28876233893989
 30
0.0
 11
45.59466050953743
 21
24.12876233893992
 31
0.0
  0
LINE
  5
7BD
330
2
100
AcDbEntity
  8
0
  6
CONTINUOUS
 62
     7
100
AcDbLine
 10
48.44466050953735
 20
19.39376233893991
 30
0.0
 11
46.24466050953741
 21
19.39376233893991
 31
0.0
  0
LINE
  5
7BE
330
2
100
AcDbEntity
  8
0
  6
CONTINUOUS
 62
     7
100
AcDbLine
 10
46.84466050953743
 20
19.99376233893993
 30
0.0
 11
46.24466050953741
 21
19.39376233893991
 31
0.0
  0
LINE
  5
7BF
330
2
100
AcDbEntity
  8
0
  6
CONTINUOUS
 62
     7
100
AcDbLine
 10
48.44466050953735
 20
24.47376233893995
 30
0.0
 11
46.24466050953741
 21
24.47376233893995
 31
0.0
  0
LINE
  5
7C0
330
2
100
AcDbEntity
  8
0
  6
CONTINUOUS
 62
     7
100
AcDbLine
 10
46.24466050953741
 20
22.94376233893986
 30
0.0
 11
48.44466050953735
 21
22.94376233893986
 31
0.0
  0
LINE
  5
7C1
330
2
100
AcDbEntity
  8
0
  6
CONTINUOUS
 62
     7
100
AcDbLine
 10
46.84466050953743
 20
22.34376233893995
 30
0.0
 11
46.24466050953741
 21
22.94376233893986
 31
0.0
  0
LINE
  5
7C2
330
2
100
AcDbEntity
  8
0
  6
CONTINUOUS
 62
     7
100
AcDbLine
 10
44.69466050953735
 20
28.54876233893988
 30
0.0
 11
44.69466050953735
 21
32.29876233893988
 31
0.0
  0
LINE
  5
7C3
330
2
100
AcDbEntity
  8
0
  6
CONTINUOUS
 62
     7
100
AcDbLine
 10
45.19466050953734
 20
28.54876233893988
 30
0.0
 11
45.19466050953734
 21
32.09876233893995
 31
0.0
  0
LINE
  5
7C4
330
2
100
AcDbEntity
  8
0
  6
CONTINUOUS
 62
     7
100
AcDbLine
 10
49.14466050953739
 20
28.54876233893988
 30
0.0
 11
49.14466050953739
 21
32.09876233893995
 31
0.0
  0
LINE
  5
7C5
330
2
100
AcDbEntity
  8
0
  6
CONTINUOUS
 62
     7
100
AcDbLine
 10
49.64466050953739
 20
28.54876233893988
 30
0.0
 11
49.64466050953739
 21
32.29876233893988
 31
0.0
  0
LINE
  5
7C6
330
2
100
AcDbEntity
  8
0
  6
CONTINUOUS
 62
     7
100
AcDbLine
 10
49.94466050953735
 20
30.48876233893993
 30
0.0
 11
49.94466050953735
 21
28.54876233893988
 31
0.0
  0
LINE
  5
7C7
330
2
100
AcDbEntity
  8
0
  6
CONTINUOUS
 62
     7
100
AcDbLine
 10
44.39466050953739
 20
28.54876233893988
 30
0.0
 11
44.39466050953739
 21
30.48876233893993
 31
0.0
  0
LINE
  5
7C8
330
2
100
AcDbEntity
  8
0
  6
CONTINUOUS
 62
     7
100
AcDbLine
 10
49.94466050953735
 20
28.54876233893988
 30
0.0
 11
44.39466050953739
 21
28.54876233893988
 31
0.0
  0
LINE
  5
7C9
330
2
100
AcDbEntity
  8
0
  6
CONTINUOUS
 62
     7
100
AcDbLine
 10
44.69466050953735
 20
25.57376233893997
 30
0.0
 11
46.84466050953743
 21
25.57376233893997
 31
0.0
  0
LINE
  5
7CA
330
2
100
AcDbEntity
  8
0
  6
CONTINUOUS
 62
     7
100
AcDbLine
 10
46.84466050953743
 20
26.92376233893988
 30
0.0
 11
44.69466050953735
 21
26.92376233893988
 31
0.0
  0
LINE
  5
7CB
330
2
100
AcDbEntity
  8
0
  6
CONTINUOUS
 62
     7
100
AcDbLine
 10
44.69466050953735
 20
26.92376233893988
 30
0.0
 11
44.69466050953735
 21
25.57376233893997
 31
0.0
  0
TEXT
  5
7CC
330
2
100
AcDbEntity
  8
TEXT
100
AcDbText
 10
55.21475706275008
 20
25.66871150390047
 30
0.0
 40
1.5
  1
1
100
AcDbText
  0
LINE
  5
7CD
330
2
100
AcDbEntity
  8
0
  6
CONTINUOUS
 62
     7
100
AcDbLine
 10
46.84466050953743
 20
27.42376233893988
 30
0.0
 11
47.84466050953744
 21
27.42376233893988
 31
0.0
  0
LINE
  5
7CE
330
2
100
AcDbEntity
  8
0
  6
CONTINUOUS
 62
     7
100
AcDbLine
 10
47.84466050953744
 20
25.07376233893997
 30
0.0
 11
46.84466050953743
 21
25.07376233893997
 31
0.0
  0
LINE
  5
7CF
330
2
100
AcDbEntity
  8
0
  6
CONTINUOUS
 62
     7
100
AcDbLine
 10
47.84466050953744
 20
27.42376233893988
 30
0.0
 11
47.84466050953744
 21
25.07376233893997
 31
0.0
  0
LINE
  5
7D0
330
2
100
AcDbEntity
  8
0
  6
CONTINUOUS
 62
     7
100
AcDbLine
 10
47.84466050953744
 20
27.42376233893988
 30
0.0
 11
48.44466050953735
 21
28.02376233893991
 31
0.0
  0
LINE
  5
7D1
330
2
100
AcDbEntity
  8
0
  6
CONTINUOUS
 62
     7
100
AcDbLine
 10
46.84466050953743
 20
25.07376233893997
 30
0.0
 11
46.84466050953743
 21
25.57376233893997
 31
0.0
  0
LINE
  5
7D2
330
2
100
AcDbEntity
  8
0
  6
CONTINUOUS
 62
     7
100
AcDbLine
 10
46.84466050953743
 20
26.92376233893988
 30
0.0
 11
46.84466050953743
 21
27.42376233893988
 31
0.0
  0
LINE
  5
7D3
330
2
100
AcDbEntity
  8
0
  6
CONTINUOUS
 62
     7
100
AcDbLine
 10
46.24466050953741
 20
26.92376233893988
 30
0.0
 11
46.24466050953741
 21
28.02376233893991
 31
0.0
  0
LINE
  5
7D4
330
2
100
AcDbEntity
  8
0
  6
CONTINUOUS
 62
     7
100
AcDbLine
 10
46.24466050953741
 20
28.02376233893991
 30
0.0
 11
48.44466050953735
 21
28.02376233893991
 31
0.0
  0
LINE
  5
7D5
330
2
100
AcDbEntity
  8
0
  6
CONTINUOUS
 62
     7
100
AcDbLine
 10
46.84466050953743
 20
27.42376233893988
 30
0.0
 11
46.24466050953741
 21
28.02376233893991
 31
0.0
  0
LINE
  5
7D6
330
2
100
AcDbEntity
  8
0
  6
CONTINUOUS
 62
     7
100
AcDbLine
 10
49.14466050953739
 20
29.28876233893989
 30
0.0
 11
45.19466050953734
 21
29.28876233893989
 31
0.0
  0
LINE
  5
7D7
330
2
100
AcDbEntity
  8
0
  6
CONTINUOUS
 62
     7
100
AcDbLine
 10
43.59466050953744
 20
32.91876233894
 30
0.0
 11
45.54466050953737
 21
32.91876233894
 31
0.0
  0
LINE
  5
7D8
330
2
100
AcDbEntity
  8
0
  6
CONTINUOUS
 62
     7
100
AcDbLine
 10
45.84466050953744
 20
32.29876233893988
 30
0.0
 11
44.69466050953735
 21
32.29876233893988
 31
0.0
  0
LINE
  5
7D9
330
2
100
AcDbEntity
  8
0
  6
CONTINUOUS
 62
     7
100
AcDbLine
 10
43.59466050953744
 20
33.21876233893995
 30
0.0
 11
45.54466050953737
 21
33.21876233893995
 31
0.0
  0
LINE
  5
7DA
330
2
100
AcDbEntity
  8
0
  6
CONTINUOUS
 62
     7
100
AcDbLine
 10
43.29466050953737
 20
32.91876233894
 30
0.0
 11
43.59466050953744
 21
33.21876233893995
 31
0.0
  0
LINE
  5
7DB
330
2
100
AcDbEntity
  8
0
  6
CONTINUOUS
 62
     7
100
AcDbLine
 10
43.44466050953735
 20
33.06876233893986
 30
0.0
 11
43.59466050953744
 21
32.91876233894
 31
0.0
  0
LINE
  5
7DC
330
2
100
AcDbEntity
  8
0
  6
CONTINUOUS
 62
     7
100
AcDbLine
 10
44.39466050953739
 20
30.48876233893993
 30
0.0
 11
44.54466050953737
 21
30.63876233893991
 31
0.0
  0
LINE
  5
7DD
330
2
100
AcDbEntity
  8
0
  6
CONTINUOUS
 62
     7
100
AcDbLine
 10
44.69466050953735
 20
30.48876233893993
 30
0.0
 11
44.39466050953739
 21
30.78876233893989
 31
0.0
  0
LINE
  5
7DE
330
2
100
AcDbEntity
  8
0
  6
CONTINUOUS
 62
     7
100
AcDbLine
 10
43.59466050953744
 20
30.78876233893989
 30
0.0
 11
43.59466050953744
 21
32.91876233894
 31
0.0
  0
LINE
  5
7DF
330
2
100
AcDbEntity
  8
0
  6
CONTINUOUS
 62
     7
100
AcDbLine
 10
43.59466050953744
 20
30.78876233893989
 30
0.0
 11
44.39466050953739
 21
30.78876233893989
 31
0.0
  0
LINE
  5
7E0
330
2
100
AcDbEntity
  8
0
  6
CONTINUOUS
 62
     7
100
AcDbLine
 10
43.59466050953744
 20
30.78876233893989
 30
0.0
 11
43.29466050953737
 21
30.48876233893993
 31
0.0
  0
LINE
  5
7E1
330
2
100
AcDbEntity
  8
0
  6
CONTINUOUS
 62
     7
100
AcDbLine
 10
44.19466050953735
 20
30.48876233893993
 30
0.0
 11
44.39466050953739
 21
30.48876233893993
 31
0.0
  0
LINE
  5
7E2
330
2
100
AcDbEntity
  8
0
  6
CONTINUOUS
 62
     7
100
AcDbLine
 10
43.89466050953739
 20
30.48876233893993
 30
0.0
 11
44.19466050953735
 21
30.78876233893989
 31
0.0
  0
LINE
  5
7E3
330
2
100
AcDbEntity
  8
0
  6
CONTINUOUS
 62
     7
100
AcDbLine
 10
44.19466050953735
 20
30.48876233893993
 30
0.0
 11
44.04466050953737
 21
30.63876233893991
 31
0.0
  0
LINE
  5
7E4
330
2
100
AcDbEntity
  8
0
  6
CONTINUOUS
 62
     7
100
AcDbLine
 10
50.14466050953739
 20
33.21876233893995
 30
0.0
 11
50.44466050953735
 21
32.91876233894
 31
0.0
  0
LINE
  5
7E5
330
2
100
AcDbEntity
  8
0
  6
CONTINUOUS
 62
     7
100
AcDbLine
 10
48.54466050953737
 20
32.91876233894
 30
0.0
 11
48.39466050953739
 21
33.06876233893986
 31
0.0
  0
LINE
  5
7E6
330
2
100
AcDbEntity
  8
0
  6
CONTINUOUS
 62
     7
100
AcDbLine
 10
48.24466050953741
 20
32.91876233894
 30
0.0
 11
48.54466050953737
 21
33.21876233893995
 31
0.0
  0
LINE
  5
7E7
330
2
100
AcDbEntity
  8
0
  6
CONTINUOUS
 62
     7
100
AcDbLine
 10
50.14466050953739
 20
32.91876233894
 30
0.0
 11
50.29466050953737
 21
33.06876233893986
 31
0.0
  0
LINE
  5
7E8
330
2
100
AcDbEntity
  8
0
  6
CONTINUOUS
 62
     7
100
AcDbLine
 10
46.34466050953744
 20
30.99876233893993
 30
0.0
 11
46.34466050953744
 21
34.51876233893991
 31
0.0
  0
LINE
  5
7E9
330
2
100
AcDbEntity
  8
0
  6
CONTINUOUS
 62
     7
100
AcDbLine
 10
47.74466050953741
 20
30.99876233893993
 30
0.0
 11
47.74466050953741
 21
34.51876233893991
 31
0.0
  0
LINE
  5
7EA
330
2
100
AcDbEntity
  8
0
  6
CONTINUOUS
 62
     7
100
AcDbLine
 10
50.44466050953735
 20
30.48876233893993
 30
0.0
 11
50.14466050953739
 21
30.78876233893989
 31
0.0
  0
LINE
  5
7EB
330
2
100
AcDbEntity
  8
0
  6
CONTINUOUS
 62
     7
100
AcDbLine
 10
50.14466050953739
 20
30.48876233893993
 30
0.0
 11
50.29466050953737
 21
30.63876233893991
 31
0.0
  0
LINE
  5
7EC
330
2
100
AcDbEntity
  8
0
  6
CONTINUOUS
 62
     7
100
AcDbLine
 10
47.74466050953741
 20
31.49876233893993
 30
0.0
 11
46.34466050953744
 21
31.49876233893993
 31
0.0
  0
LINE
  5
7ED
330
2
100
AcDbEntity
  8
0
  6
CONTINUOUS
 62
     7
100
AcDbLine
 10
50.14466050953739
 20
32.91876233894
 30
0.0
 11
50.14466050953739
 21
30.78876233893989
 31
0.0
  0
LINE
  5
7EE
330
2
100
AcDbEntity
  8
0
  6
CONTINUOUS
 62
     7
100
AcDbLine
 10
49.94466050953735
 20
30.78876233893989
 30
0.0
 11
50.14466050953739
 21
30.78876233893989
 31
0.0
  0
LINE
  5
7EF
330
2
100
AcDbEntity
  8
0
  6
CONTINUOUS
 62
     7
100
AcDbLine
 10
49.94466050953735
 20
30.48876233893993
 30
0.0
 11
50.14466050953739
 21
30.48876233893993
 31
0.0
  0
LINE
  5
7F0
330
2
100
AcDbEntity
  8
0
  6
CONTINUOUS
 62
     7
100
AcDbLine
 10
49.94466050953735
 20
30.48876233893993
 30
0.0
 11
49.79466050953737
 21
30.63876233893991
 31
0.0
  0
LINE
  5
7F1
330
2
100
AcDbEntity
  8
0
  6
CONTINUOUS
 62
     7
100
AcDbLine
 10
49.64466050953739
 20
30.48876233893993
 30
0.0
 11
49.94466050953735
 21
30.78876233893989
 31
0.0
  0
LINE
  5
7F2
330
2
100
AcDbEntity
  8
0
  6
CONTINUOUS
 62
     7
100
AcDbLine
 10
48.54466050953737
 20
32.91876233894
 30
0.0
 11
50.14466050953739
 21
32.91876233894
 31
0.0
  0
LINE
  5
7F3
330
2
100
AcDbEntity
  8
0
  6
CONTINUOUS
 62
     7
100
AcDbLine
 10
49.64466050953739
 20
32.29876233893988
 30
0.0
 11
48.24466050953741
 21
32.29876233893988
 31
0.0
  0
LINE
  5
7F4
330
2
100
AcDbEntity
  8
0
  6
CONTINUOUS
 62
     7
100
AcDbLine
 10
49.14466050953739
 20
32.09876233893995
 30
0.0
 11
47.74466050953741
 21
32.09876233893995
 31
0.0
  0
LINE
  5
7F5
330
2
100
AcDbEntity
  8
0
  6
CONTINUOUS
 62
     7
100
AcDbLine
 10
48.24466050953741
 20
32.91876233894
 30
0.0
 11
48.24466050953741
 21
32.29876233893988
 31
0.0
  0
LINE
  5
7F6
330
2
100
AcDbEntity
  8
0
  6
CONTINUOUS
 62
     7
100
AcDbLine
 10
48.54466050953737
 20
32.91876233894
 30
0.0
 11
48.54466050953737
 21
32.29876233893988
 31
0.0
  0
LINE
  5
7F7
330
2
100
AcDbEntity
  8
0
  6
CONTINUOUS
 62
     7
100
AcDbLine
 10
46.34466050953744
 20
33.63619983373992
 30
0.0
 11
47.74466050953741
 21
33.63619983373992
 31
0.0
  0
LINE
  5
7F8
330
2
100
AcDbEntity
  8
0
  6
CONTINUOUS
 62
     7
100
AcDbLine
 10
48.04466050953737
 20
35.11876233893993
 30
0.0
 11
47.74466050953741
 21
34.51876233893991
 31
0.0
  0
LINE
  5
7F9
330
2
100
AcDbEntity
  8
0
  6
CONTINUOUS
 62
     7
100
AcDbLine
 10
48.54466050953737
 20
33.21876233893995
 30
0.0
 11
50.14466050953739
 21
33.21876233893995
 31
0.0
  0
LINE
  5
7FA
330
2
100
AcDbEntity
  8
0
  6
CONTINUOUS
 62
     7
100
AcDbLine
 10
48.04466050953737
 20
35.11876233893993
 30
0.0
 11
48.04466050953737
 21
36.01876233893991
 31
0.0
  0
LINE
  5
7FB
330
2
100
AcDbEntity
  8
0
  6
CONTINUOUS
 62
     7
100
AcDbLine
 10
45.69466050953734
 20
33.06876233893986
 30
0.0
 11
45.54466050953737
 21
32.91876233894
 31
0.0
  0
LINE
  5
7FC
330
2
100
AcDbEntity
  8
0
  6
CONTINUOUS
 62
     7
100
AcDbLine
 10
45.84466050953744
 20
32.91876233894
 30
0.0
 11
45.54466050953737
 21
33.21876233893995
 31
0.0
  0
LINE
  5
7FD
330
2
100
AcDbEntity
  8
0
  6
CONTINUOUS
 62
     7
100
AcDbLine
 10
45.54466050953737
 20
32.29876233893988
 30
0.0
 11
45.54466050953737
 21
32.91876233894
 31
0.0
  0
LINE
  5
7FE
330
2
100
AcDbEntity
  8
0
  6
CONTINUOUS
 62
     7
100
AcDbLine
 10
45.84466050953744
 20
32.29876233893988
 30
0.0
 11
45.84466050953744
 21
32.91876233894
 31
0.0
  0
LINE
  5
7FF
330
2
100
AcDbEntity
  8
0
  6
CONTINUOUS
 62
     7
100
AcDbLine
 10
46.04466050953737
 20
35.11876233893993
 30
0.0
 11
46.04466050953737
 21
36.01876233893991
 31
0.0
  0
LINE
  5
800
330
2
100
AcDbEntity
  8
0
  6
CONTINUOUS
 62
     7
100
AcDbLine
 10
49.14466050953739
 20
30.99876233893993
 30
0.0
 11
45.19466050953734
 21
30.99876233893993
 31
0.0
  0
LINE
  5
801
330
2
100
AcDbEntity
  8
0
  6
CONTINUOUS
 62
     7
100
AcDbLine
 10
49.14466050953739
 20
30.78876233893989
 30
0.0
 11
45.19466050953734
 21
30.78876233893989
 31
0.0
  0
LINE
  5
802
330
2
100
AcDbEntity
  8
0
  6
CONTINUOUS
 62
     7
100
AcDbLine
 10
46.34466050953744
 20
32.09876233893995
 30
0.0
 11
45.19466050953734
 21
32.09876233893995
 31
0.0
  0
LINE
  5
803
330
2
100
AcDbEntity
  8
0
  6
CONTINUOUS
 62
     7
100
AcDbLine
 10
48.04466050953737
 20
36.01876233893991
 30
0.0
 11
46.04466050953737
 21
36.01876233893991
 31
0.0
  0
LINE
  5
804
330
2
100
AcDbEntity
  8
0
  6
CONTINUOUS
 62
     7
100
AcDbLine
 10
46.04466050953737
 20
35.53467533868998
 30
0.0
 11
48.04466050953737
 21
35.53467533868998
 31
0.0
  0
LINE
  5
805
330
2
100
AcDbEntity
  8
0
  6
CONTINUOUS
 62
     7
100
AcDbLine
 10
46.34466050953744
 20
34.51876233893991
 30
0.0
 11
46.04466050953737
 21
35.11876233893993
 31
0.0
  0
ENDSEC
  0
SECTION
  2
OBJECTS
  0
DICTIONARY
  5
7
330
0
100
AcDbDictionary
  3
ACAD_GROUP
350
20
  3
ACAD_LAYOUT
350
B
  3
ACAD_MLINESTYLE
350
21
  3
ACAD_PLOTSETTINGS
350
22
  3
ACAD_PLOTSTYLENAME
350
6
  3
ACDBHEADERROUNDTRIPXREC
350
86A
  3
ACDBVARIABLEDICTIONARY
350
107
  0
DICTIONARY
  5
6A3
330
2
100
AcDbDictionary
280
     1
  3
ACAD_LAYOUTSELFREF
360
88B
  0
DICTIONARY
  5
6A5
330
C
100
AcDbDictionary
280
     1
  3
ACAD_LAYOUTSELFREF
360
88C
  0
DICTIONARY
  5
20
102
{ACAD_REACTORS
330
7
102
}
330
7
100
AcDbDictionary
  0
DICTIONARY
  5
B
102
{ACAD_REACTORS
330
7
102
}
330
7
100
AcDbDictionary
  0
DICTIONARY
  5
21
102
{ACAD_REACTORS
330
7
102
}
330
7
100
AcDbDictionary
  3
STANDARD
350
24
  0
DICTIONARY
  5
22
102
{ACAD_REACTORS
330
7
102
}
330
7
100
AcDbDictionary
  3
A4_PDF
350
680
  3
B5_PDF
350
868
  0
ACDBDICTIONARYWDFLT
  5
6
102
{ACAD_REACTORS
330
7
102
}
330
7
100
AcDbDictionary
281
     1
  3
Normal
350
5
100
AcDbDictionaryWithDefault
340
5
  0
DICTIONARY
  5
86A
102
{ACAD_REACTORS
330
7
102
}
330
7
100
AcDbDictionary
  3
CEPSNTYPE
350
874
  3
DIMSTYLEDATA
350
878
  3
FINGERPRINTGUID
350
875
  3
HYPERLINKBASE
350
86D
  3
INSUNITS
350
873
  3
LAYOUTDICT
350
86F
  3
LWETCUNION
350
872
  3
PLOTSETDICT
350
870
  3
PLOTSTYLNAMDICT
350
871
  3
PSVPSCALE
350
877
  3
PUCSBASE
350
87B
  3
PUCSORGBACK
350
881
  3
PUCSORGBOTTOM
350
87D
  3
PUCSORGFRONT
350
880
  3
PUCSORGLEFT
350
87E
  3
PUCSORGRIGHT
350
87F
  3
PUCSORGTOP
350
87C
  3
PUCSORTHOREF
350
879
  3
PUCSORTHOVIEW
350
87A
  3
STYLESHEET
350
86E
  3
TSTACKALIGN
350
86B
  3
TSTACKSIZE
350
86C
  3
UCSBASE
350
884
  3
UCSORGBACK
350
88A
  3
UCSORGBOTTOM
350
886
  3
UCSORGFRONT
350
889
  3
UCSORGLEFT
350
887
  3
UCSORGRIGHT
350
888
  3
UCSORGTOP
350
885
  3
UCSORTHOREF
350
882
  3
UCSORTHOVIEW
350
883
  3
VERSIONGUID
350
876
  0
DICTIONARY
  5
107
102
{ACAD_REACTORS
330
7
102
}
330
7
100
AcDbDictionary
  3
DIMASSOC
350
109
  3
HIDETEXT
350
108
  0
XRECORD
  5
88B
102
{ACAD_REACTORS
330
6A3
102
}
330
6A3
100
AcDbXrecord
340
2
  0
XRECORD
  5
88C
102
{ACAD_REACTORS
330
6A5
102
}
330
6A5
100
AcDbXrecord
340
C
  0
MLINESTYLE
  5
24
102
{ACAD_REACTORS
330
21
102
}
330
21
100
AcDbMlineStyle
  2
STANDARD
 70
     0
  3

 62
   256
 51
90.0
 52
90.0
 71
     2
 49
0.5
 62
   256
  6
BYLAYER
 49
-0.5
 62
   256
  6
BYLAYER
  0
PLOTSETTINGS
  5
680
102
{ACAD_REACTORS
330
22
102
}
330
22
100
AcDbPlotSettings
  1
A4_PDF
  2
クセロPDF2
  4
A4
  6

 40
3.174999952316283
 41
3.174999952316283
 42
3.175003051757812
 43
3.17498779296875
 44
209.9733276367186
 45
296.9259948730469
 46
1.379999999999999
 47
0.0
 48
-20.15911194090244
 49
-7.509035955699572
140
75.65065093770956
141
58.71850816619009
142
1.0
143
0.3297235853216398
 70
  1716
 72
     1
 73
     1
 74
     4
  7

 75
     0
147
3.032843401313002
148
20.15911194090244
149
7.509035955699572
  0
PLOTSETTINGS
  5
868
102
{ACAD_REACTORS
330
22
102
}
330
22
100
AcDbPlotSettings
  1
B5_PDF
  2
クセロPDF2
  4
B5 (JIS)
  6

 40
3.174999952316284
 41
3.174999952316284
 42
3.175003051757812
 43
3.175003051757812
 44
181.9486694335937
 45
256.9633178710937
 46
0.0
 47
0.0
 48
-21.12811035048201
 49
-9.204073527581215
140
82.79701686586946
141
60.7767674877831
142
1.0
143
0.4146831834194292
 70
  1712
 72
     1
 73
     1
 74
     4
  7

 75
     0
147
2.411479510102426
148
21.12811035048201
149
9.204073527581215
  0
ACDBPLACEHOLDER
  5
5
102
{ACAD_REACTORS
330
6
102
}
330
6
100
AcDbPlaceHolder
280
     0
  0
XRECORD
  5
874
102
{ACAD_REACTORS
330
86A
102
}
330
86A
100
AcDbXrecord
 90
        0
  0
XRECORD
  5
878
102
{ACAD_REACTORS
330
86A
102
}
330
86A
100
AcDbXrecord
1000
DSTYLE
1002
{
1070
    79
 70
     2
1070
   179
 70
     2
1002
}
  0
XRECORD
  5
875
102
{ACAD_REACTORS
330
86A
102
}
330
86A
100
AcDbXrecord
  1
{2A62C0A0-B0AE-11D4-A709-0040CA1FD371}
  0
XRECORD
  5
86D
102
{ACAD_REACTORS
330
86A
102
}
330
86A
100
AcDbXrecord
  1

  0
XRECORD
  5
873
102
{ACAD_REACTORS
330
86A
102
}
330
86A
100
AcDbXrecord
 90
        0
  0
XRECORD
  5
86F
102
{ACAD_REACTORS
330
86A
102
}
330
86A
100
AcDbXrecord
340
B
  0
XRECORD
  5
872
102
{ACAD_REACTORS
330
86A
102
}
330
86A
100
AcDbXrecord
 90
    10781
  0
XRECORD
  5
870
102
{ACAD_REACTORS
330
86A
102
}
330
86A
100
AcDbXrecord
340
22
  0
XRECORD
  5
871
102
{ACAD_REACTORS
330
86A
102
}
330
86A
100
AcDbXrecord
340
6
  0
XRECORD
  5
877
102
{ACAD_REACTORS
330
86A
102
}
330
86A
100
AcDbXrecord
 40
0.0
  0
XRECORD
  5
87B
102
{ACAD_REACTORS
330
86A
102
}
330
86A
100
AcDbXrecord
340
0
  0
XRECORD
  5
881
102
{ACAD_REACTORS
330
86A
102
}
330
86A
100
AcDbXrecord
 10
0.0
 20
0.0
 30
0.0
  0
XRECORD
  5
87D
102
{ACAD_REACTORS
330
86A
102
}
330
86A
100
AcDbXrecord
 10
0.0
 20
0.0
 30
0.0
  0
XRECORD
  5
880
102
{ACAD_REACTORS
330
86A
102
}
330
86A
100
AcDbXrecord
 10
0.0
 20
0.0
 30
0.0
  0
XRECORD
  5
87E
102
{ACAD_REACTORS
330
86A
102
}
330
86A
100
AcDbXrecord
 10
0.0
 20
0.0
 30
0.0
  0
XRECORD
  5
87F
102
{ACAD_REACTORS
330
86A
102
}
330
86A
100
AcDbXrecord
 10
0.0
 20
0.0
 30
0.0
  0
XRECORD
  5
87C
102
{ACAD_REACTORS
330
86A
102
}
330
86A
100
AcDbXrecord
 10
0.0
 20
0.0
 30
0.0
  0
XRECORD
  5
879
102
{ACAD_REACTORS
330
86A
102
}
330
86A
100
AcDbXrecord
340
0
  0
XRECORD
  5
87A
102
{ACAD_REACTORS
330
86A
102
}
330
86A
100
AcDbXrecord
 70
     0
  0
XRECORD
  5
86E
102
{ACAD_REACTORS
330
86A
102
}
330
86A
100
AcDbXrecord
  1

  0
XRECORD
  5
86B
102
{ACAD_REACTORS
330
86A
102
}
330
86A
100
AcDbXrecord
 90
        1
  0
XRECORD
  5
86C
102
{ACAD_REACTORS
330
86A
102
}
330
86A
100
AcDbXrecord
 90
       70
  0
XRECORD
  5
884
102
{ACAD_REACTORS
330
86A
102
}
330
86A
100
AcDbXrecord
340
0
  0
XRECORD
  5
88A
102
{ACAD_REACTORS
330
86A
102
}
330
86A
100
AcDbXrecord
 10
0.0
 20
0.0
 30
0.0
  0
XRECORD
  5
886
102
{ACAD_REACTORS
330
86A
102
}
330
86A
100
AcDbXrecord
 10
0.0
 20
0.0
 30
0.0
  0
XRECORD
  5
889
102
{ACAD_REACTORS
330
86A
102
}
330
86A
100
AcDbXrecord
 10
0.0
 20
0.0
 30
0.0
  0
XRECORD
  5
887
102
{ACAD_REACTORS
330
86A
102
}
330
86A
100
AcDbXrecord
 10
0.0
 20
0.0
 30
0.0
  0
XRECORD
  5
888
102
{ACAD_REACTORS
330
86A
102
}
330
86A
100
AcDbXrecord
 10
0.0
 20
0.0
 30
0.0
  0
XRECORD
  5
885
102
{ACAD_REACTORS
330
86A
102
}
330
86A
100
AcDbXrecord
 10
0.0
 20
0.0
 30
0.0
  0
XRECORD
  5
882
102
{ACAD_REACTORS
330
86A
102
}
330
86A
100
AcDbXrecord
340
0
  0
XRECORD
  5
883
102
{ACAD_REACTORS
330
86A
102
}
330
86A
100
AcDbXrecord
 70
     0
  0
XRECORD
  5
876
102
{ACAD_REACTORS
330
86A
102
}
330
86A
100
AcDbXrecord
  1
{3318723B-9AFB-4528-B5DA-25F3231EA423}
  0
DICTIONARYVAR
  5
109
102
{ACAD_REACTORS
330
107
102
}
330
107
100
DictionaryVariables
280
     0
  1
1
  0
DICTIONARYVAR
  5
108
102
{ACAD_REACTORS
330
107
102
}
330
107
100
DictionaryVariables
280
     0
  1
1
  0
ENDSEC
  0
EOF
